» » »

Green Day - Espionage Bass

Artists:  A B C D E F G H I J K L M N O P Q R S T U V W X Y Z # 

Espionage Bass

(ver. 3) Click to play this song!
Green Day
 Rating:
4/5 (4 votes)
                -----------------------------------------------------------------|
-----------------------------------------------------------------|
-----------------------------------------------------------------|
0~---------------------------------------------------------------|

----------------------------------------------------------------|
----------------------------------------------------------------|
----------------------------------------------------------------| X2
0-0-3---0-0-3---0-0-3---0-0-3---0-0-3---0-0-3---0-0-3---0-0-3---|

----------------------------------------------------------------|
----------------------------------------------------------------| 
0-0-3---0-0-3---0-0-3---0-0-3---0-0-3---0-0-3---0-0-3---0-0-3---|
----------------------------------------------------------------|

----------------------------------------------------------------|
----------------------------------------------------------------|
----------------------------------------------------------------| 
0-0-3---0-0-3---0-0-3---0-0-3---0-0-3---0-0-3---0-0-3---0-0-3---|

--------------------------------------------------------------|
--------------------------------------------------------------|
2----2----02-3---3---5-3-2----2----3----3---5-3-2----2----2-2-|
--------------------------------------------------------------|

---------------------------------------------|
---------------------------------------------|
---------------------------------------------|
2---2--2-0-2-3-3-3-3-3-3-3-3-6-6-6-6-6-6-6-6-|

----------------------------------------------------------------|
----------------------------------------------------------------|
----------------------------------------------------------------| X2
0-0-3---0-0-3---0-0-3---0-0-3---0-0-3---0-0-3---0-0-3---0-0-3---|

----------------------------------------------------------------|
----------------------------------------------------------------| 
0-0-3---0-0-3---0-0-3---0-0-3---0-0-3---0-0-3---0-0-3---0-0-3---|
----------------------------------------------------------------|

----------------------------------------------------------------|
----------------------------------------------------------------|
----------------------------------------------------------------| 
0-0-3---0-0-3---0-0-3---0-0-3---0-0-3---0-0-3---0-0-3---0-0-3---|

--------------------------------------------------------------|
--------------------------------------------------------------|
2----2----02-3---3---5-3-2----2----3----3---5-3-2----2----2-2-|
--------------------------------------------------------------|

---------------------------------------------|
---------------------------------------------|
---------------------------------------------|
2---2--2-0-2-3-3-3-3-3-3-3-3-6-6-6-6-6-6-6-6-|

----------------------------------------------------------------|
----------------------------------------------------------------|
----------------------------------------------------------------| X2
0-0-3---0-0-3---0-0-3---0-0-3---0-0-3---0-0-3---0-0-3---0-0-3---|

----------------------------------------------------------------|
----------------------------------------------------------------| 
0-0-3---0-0-3---0-0-3---0-0-3---0-0-3---0-0-3---0-0-3---0-0-3---|
----------------------------------------------------------------|

----------------------------------------------------------------|
----------------------------------------------------------------|
----------------------------------------------------------------| 
0-0-3---0-0-3---0-0-3---0-0-3---0-0-3---0-0-3---0-0-3---0-0-3---|

--------------------------------------------------------------|
--------------------------------------------------------------|
2----2----02-3---3---5-3-2----2----3----3---5-3-2----2----2-2-|
--------------------------------------------------------------|

-------------------------------------------------------|
-------------------------------------------------------|
-------------------------------------------------------|
2---2--2-0-2-3-3-3-3-3-3-3-3-6-6-6-6-6-6-6-6-0~--------|

----------------------------------------------------------------|
----------------------------------------------------------------|
----------------------------------------------------------------| X2
0-0-3---0-0-3---0-0-3---0-0-3---0-0-3---0-0-3---0-0-3---0-0-3---|

----------------------------------------------------------------|
----------------------------------------------------------------| 
0-0-3---0-0-3---0-0-3---0-0-3---0-0-3---0-0-3---0-0-3---0-0-3---|
----------------------------------------------------------------|

----------------------------------------------------------------|
----------------------------------------------------------------|
----------------------------------------------------------------| 
0-0-3---0-0-3---0-0-3---0-0-3---0-0-3---0-0-3---0-0-3---0-0-3---|

--------------------------------------------------------------|
--------------------------------------------------------------|
2----2----02-3---3---5-3-2----2----3----3---5-3-2----2----2-2-|
--------------------------------------------------------------|

-------------------------------------------------------|
-------------------------------------------------------|
-------------------------------------------------------|
2---2--2-0-2-3-3-3-3-3-3-3-3-6-6-6-6-6-6-6-6-0~--------|
            
Submit corrections

↑ Back to top | Tablatures and chords for acoustic guitar and electric guitar, ukulele, drums are parodies/interpretations of the original songs. You may use it for private study, scholarship, research or language learning purposes only