Home » G » Green Day »

Green Day - Coming Clean Chords

Artists:  A B C D E F G H I J K L M N O P Q R S T U V W X Y Z # 

Coming Clean Chords

(ver. 4) Click to play this song!
Green Day
[Solo]
 
eb|-----x------x----x----x--------------|
Bb|-----x------x----x----x--------------|
Gb|--11-x-8-8--x--8-x-6--x--8-6-9-8-----|
Db|---x-x-x-x--x--x-x-x--x--x-x-x-x-8---|
Ab|---9-x-6-6--x--6-x-4--x--6-6-7-6-x---|
Eb|-----x------x----x----x----------6---|
 
eb|-------------x---x---x-------------|
Bb|-----x-------x---x---x-------------|
Gb|---4-x--9-8--x-8-x-8-x-9-8-8-8-8---|
Db|---x-x--x-x--x-x-x-x-x-x-x-x-x-x---|
Ab|---2-x--7-6--x-6-x-6-x-7-6-6-6-6---|
Eb|-----x-------x---x---x-------------|
 
eb|-----x------x----x----x--------------|
Bb|-----x------x----x----x--------------|
Gb|--11-x-8-8--x--8-x-6--x--8-6-9-8-----|
Db|---x-x-x-x--x--x-x-x--x--x-x-x-x-8---|
Ab|---9-x-6-6--x--6-x-4--x--6-6-7-6-x---|
Eb|-----x------x----x----x----------6---|
 
eb|-------------x---x---x-----x---x---|
Bb|-----x-------x---x---x-----x---x---|
Gb|---4-x--9-8--x-8-x-8-x-9-8-x-4-x---|
Db|---x-x--x-x--x-x-x-x-x-x-x-x-x-x---|
Ab|---2-x--7-6--x-6-x-6-x-7-6-x-2-x---|
Eb|-----x-------x---x---x-----x---x---|
 
eb|-------------x---x---x-------------|
Bb|-----x-------x---x---x-------------|
Gb|---3-x--4-4--x-6-x-4-x-4-3-4-4-4---|
Db|---x-x--x-x--x-x-x-x-x-x-x-x-x-x---|
Ab|---1-x--2-2--x-4-x-2-x-2-1-2-2-2---|
Eb|-----x-------x---x---x-------------|
 
eb|-------------x---x---x--------------|
Bb|-----x-------x---x---x--------------|
Gb|---3-x--4-4--x-9-x-8-x-9-9-9-9-11---|
Db|---x-x--x-x--x-x-x-x-x-x-x-x-x--x---|
Ab|---1-x--2-2--x-7-x-6-x-7-7-7-7--9---|
Eb|-----x-------x---x---x--------------|
 
eb|-------------x---x---x-------------|
Bb|-----x-------x---x---x-------------|
Gb|---3-x--4-4--x-6-x-4-x-4-3-4-4-4---|
Db|---x-x--x-x--x-x-x-x-x-x-x-x-x-x---|
Ab|---1-x--2-2--x-4-x-2-x-2-1-2-2-2---|
Eb|-----x-------x---x---x-------------|
 
eb|------------------------------------|
Bb|------------------------------------|
Gb|------4-4-4-4-4-4-4-4-4-4-4-4-4-4---|
Db|--2---2-2-2-2-2-2-2-2-2-2-2-2-2-2---|
Ab|--2---2-2-2-2-2-2-2-2-2-2-2-2-2-2---|
Eb|--0---0-0-0-0-0-0-0-0-0-0-0-0-0-0---|
            
Submit corrections

↑ Back to top | Tablatures and chords for acoustic guitar and electric guitar, ukulele, drums are parodies/interpretations of the original songs. You may use it for private study, scholarship, research or language learning purposes only