» » »

Green Day - Chump Tabs

Artists:  A B C D E F G H I J K L M N O P Q R S T U V W X Y Z # 

Chump Tabs

(ver. 2) Click to play this song!
Green Day
 Rating:
4/5 (4 votes)
                I tabbed this song couse i couldn´t find any tab of this song the 100% correct. This is the way that billie plays it at jaded in chicago , hope you enjoy it:

Intro:
e   |-----------5-----------------------|
B   |-----------5-----------------------|
G   |--4--------7----7------------------|
D   |--4--2--4--7--7---7----------------|
A   |--2--2--4--5-----------------------|
E   |-----0--2--------------------------|

Verse:
e   |-----------------------------------|
B   |-----------------------------------|
G   |--4--------7----7------------------|
D   |--4--2--4--7--7---7--4-------------|
A   |--2--2--4--5---------4-------------|
E   |-----0--2------------2-------------|

Chorus:
e   |-----------------------------------|
B   |-----------------------------------|
G   |--7-----4-----4--------------------|
D   |--7--4--4--4--4--------------------|
A   |--5--4--2--4--2--------------------|
E   |-----2-----2-----------------------| 

Bridge:
e   |------------------------------------------------------------|
B   |------------------------------------------------------------|
G   |------10:--10:--10:--10:--10:--8:--10:--8:--10-10-----------|
D   |--4:--10:--10:--10:--10:--10:--8:--10:--8:--10-10-(repeat)--|
A   |--4:---8:---8:---8:---8:---8:--6:---8:--6:---8--8-----------|
E   |--2:--------------------------------------------------------|

Order:
Intro
Verse
Chorus
Intro
Verse
Chorus
Intro
Bridge

Lyrics:

(Verse)
I don't know you but i think i hate you
you're the reason for my misery
strange how you've become my biggest enemy
and i've never even seen your face

(Chorus)
maybe it's just jealousy, mixing up with a violent mind
a circumstance that doesn't make much sense
or maybe i'm just dumb

(Verse)
You're the cloud hanging out over my head
hail comes crashing down welting my face
magic man, egocentric plastic man
yet you still got one over on me
            
Submit corrections

↑ Back to top | Tablatures and chords for acoustic guitar and electric guitar, ukulele, drums are parodies/interpretations of the original songs. You may use it for private study, scholarship, research or language learning purposes only