» » »

Green Day - Carpe Diem Tabs

Artists:  A B C D E F G H I J K L M N O P Q R S T U V W X Y Z # 

Carpe Diem Tabs

(ver. 6) Click to play this song!
Green Day
 Rating:
4.3/5 (27 votes)

 Carpe Diem lessons Tabs too difficult? Try these video lessons and learn fast
 
                Intro]
e|---------------------------------------------------------|
B|---------------------------------------------------------|
G|-6-6-6-6-6-6------6--6-6-6-6-6-6-----6---------------6---|
D|-6-6-6-6-6-6--4-6-6--6-6-6-6-6-6-6-4-6---(x2)----4-6-6---|
A|-4-4-4-4-4-4--4-6-4--4-4-4-4-4-4-6-4-4-----------4-6-4---|
E|--------------2-4----------------4-2-------------2-4-----|

[Verse]
e|----------------------------------------------------------------------|
B|----------------------------------------------------------------------|
G|---6----6----6--6-----------------4-----4-----------------------------|
D|-6-6--6-6--6-6--6-6-6-------------4-4-4-4-4-4-4-4-4-4-4-4-4-4-4-------|
A|-6-4--6-4--6-4--4-6-6----(x4)-----6-4-4-6-4-4-4-4-4-4-4-4-4-4-4-------|
E|-4----4----4------4-4---------------6-6---6-6-6-6-6-6-6-6-6-6-6-------|

[Chorus]
e|--------------------------------------------------------------------------------|
B|--------------------------------------------------------------------------------|
G|-6-6-6-6-6-6-----6--6-6-6-6-6-6-----6----------------------6-6-6-6-6-6-6-6------|
D|-6-6-6-6-6-6-4-6-6--6-6-6-6-6-6-6-4-6-(x2)-4-4-4-4-4-4-4-4-6-6-6-6-6-6-6-6------|
A|-4-4-4-4-4-4-4-6-4--4-4-4-4-4-4-6-4-4------4-4-4-4-4-4-4-4-4-4-4-4-4-4-4-4-(x3)-|
E|-------------2-4----------------4-2--------2-2-2-2-2-2-2-2----------------------|

e|-----------------------------|
B|-----------------------------|
G|-----------------------------|
D|-6-6~---6-6~---6-6~---6-6----|
A|-6-6~---6-6~---6-6~---6-6----|
E|-4-4~---4-4~---4-4~---4-4----|

[Verse]
e|------------------------------------------------------------------------|
B|------------------------------------------------------------------------|
G|---6----6----6--6----------------4-----4--------------------------------|
D|-6-6--6-6--6-6--6-6-6------------4-4-4-4-4-4----4-4-4-4-4-4-4-4-4-------|
A|-6-4--6-4--6-4--4-6-6----(x4)----6-4-4-6-4-4----4-4-4-4-4-4-4-4-4-------|
E|-4----4----4------4-4--------------6-6---6-6----6-6-6-6-6-6-6-6-6-------|

[Chorus]
e|--------------------------------------------------------------------------------|
B|--------------------------------------------------------------------------------|
G|-6-6-6-6-6-6-----6--6-6-6-6-6-6-----6----------------------6-6-6-6-6-6-6-6------|
D|-6-6-6-6-6-6-4-6-6--6-6-6-6-6-6-6-4-6-(x2)-4-4-4-4-4-4-4-4-6-6-6-6-6-6-6-6------|
A|-4-4-4-4-4-4-4-6-4--4-4-4-4-4-4-6-4-4------4-4-4-4-4-4-4-4-4-4-4-4-4-4-4-4-(x3)-|
E|-------------2-4----------------4-2--------2-2-2-2-2-2-2-2----------------------|

e|-----------------------------|
B|-----------------------------|
G|-----------------------------|
D|-6-6~---6-6~---6-6~---6-6----|
A|-6-6~---6-6~---6-6~---6-6----|
E|-4-4~---4-4~---4-4~---4-4----|

[Lead Solo]
e|-------------------------------------9------------------------------------------------------|
B|-----9~-----9---9---9---9---9---9---9---13~~~---------9~-----9---9---9---9--------------9-9-|
G|-11b~~--11b(13)(13)(13)(13)(13)(13)(13)-----------11b~~--11b(13)(13)(13)(13)r11~10~---------|
D|------------------------------------------------------------------------------------11~~----|
A|--------------------------------------------------------------------------------------------|
E|--------------------------------------------------------------------------------------------|

e|--------------------------------------------------------------------------------------------|
B|-----9~-----9---9---9---12brbrb~~(14)-----------9~-----9---9---9---9------------------------|
G|-11b~~--11b(13)(13)(13)---------------------11b~~--11b(13)(13)(13)(13)r11~10~---------------|
D|------------------------------------------------------------------------------11~~-\\-------|
A|--------------------------------------------------------------------------------------------|
E|--------------------------------------------------------------------------------------------|

[Rhythm]
e|---------------------------------------------|
B|---------------------------------------------|
G|-6-6-6-6-6-6-----6--6-6-6-6-6-6-----4--------|
D|-6-6-6-6-6-6-4-6-6--6-6-6-6-6-6-6-4-4--(x2)--|
A|-4-4-4-4-4-4-4-6-4--4-4-4-4-4-4-6-4-6--------|
E|-------------2-4----------------4-2----------|

[Verse]
e|-------------------------------------------------------------|
B|-------------------------------------------------------------|
G|-----------------6-6-6-6-6-6-6-6-----------------------------|
D|-4-4-4-4-4-4-4-4-6-6-6-6-6-6-6-6-------6-6~--6-6~--6-6~--6-6-|
A|-4-4-4-4-4-4-4-4-4-4-4-4-4-4-4-4-(x3)--6-6~--6-6~--6-6~--6-6-|
E|-2-2-2-2-2-2-2-2-----------------------4-4~--4-4~--4-4~--4-4-|
   * * * * * * * * * * * * * * * *
e|---------------------------------------------------------------------------------------|
B|---------------------------------------------------------------------------------------|
G|-6-6-6-6-6-6------6--6-6-6-6-6-6-------6-6-----6-6-6-6-6-6--------6--6-6-6-6-6-6-----6-|
D|-6-6-6-6-6-6--4-6-6--6-6-6-6-6-6-6-4---6-6-----6-6-6-6-6-6--4--6--6--6-6-6-6-6-6-4-6-6-|
A|-4-4-4-4-4-4--4-6-4--4-4-4-4-4-4-6-4---4-4-----4-4-4-4-4-4--4--6--4--4-4-4-4-4-4-4-6-4-|
E|--------------2-4----------------4-2------------------------2--4-----------------2-4---|

[Outro]
e|-------------------------------------------|
B|-------------------------------------------|
G|-6-6-6-6-6-6-----6--6-6-6-6-6-6-----4------|
D|-6-6-6-6-6-6-4-6-6--6-6-6-6-6-6-6-4-4-(x4)-|
A|-4-4-4-4-4-4-4-6-4--4-4-4-4-4-4-6-4-6------|
E|-------------2-4----------------4-2--------|            
Submit corrections


        Carpe Diem lessons Hard to play? Try these video lessons and learn fast Carpe Diem lessons
        
↑ Back to top | Tablatures and chords for acoustic guitar and electric guitar, ukulele, drums are parodies/interpretations of the original songs. You may use it for private study, scholarship, research or language learning purposes only