» » »

Green Day - Basket Case Tabs

Artists:  A B C D E F G H I J K L M N O P Q R S T U V W X Y Z # 

Basket Case Tabs

(ver. 11) Click to play this song!
Green Day
 Rating:
4.3/5 (26 votes)

 Basket Case lessons Tabs too difficult? Try these video lessons and learn fast
 
                (Verse)
e|-----------------|-----------------|-----------------|-----------------|
B|-----------------|-----------------|-----------------|-----------------|
G|--9-X-9--9-9-9---|--4-X-4--4-4-4---|--6-X-6--6-6-6---|-----------------|
D|--7-X-7--7-7-7---|--4-X-4--4-4-4---|--6-X-6--6-6-6---|--6-X-6--6-6-6---|
A|-----------------|--2-X-2--2-2-2---|--4-X-4--4-4-4---|--6-X-6--6-6-6---|
E|-----------------|-----------------|-----------------|--4-X-4--4-4-4---|
    DO YOU HAVE THE   TIME TO           LISTEN TO ME      WHINE

e|-----------------|-----------------|-----------------|-----------------|
B|-----------------|-----------------|-----------------|-----------------|
G|-----------------|-9-X-9--9-9-9----|-----------------|-----------------|
D|--7-X-7--7-7-7---|-9-X-9--9-9-9----|--9-X-9--9-9-9---|--9-X-9--9-9-9---|
A|--7-X-7--7-7-7---|-7-X-7--7-7-7----|--9-X-9--9-9-9---|--9-X-9--9-9-9---|
E|--5-X-5--5-5-5---|-----------------|--7-X-7--7-7-7---|--7-X-7--7-7-7---|
  ABOUT NOTHING AND  EVERYTHING         ALL               AT ONCE

e|-----------------|-----------------|-----------------|-----------------|
B|-----------------|-----------------|-----------------|-----------------|
G|--9-X-9--9-9-9---|-----------------|--6-X-6--6-6-6---|-----------------|
D|--9-X-9--9-9-9---|--9-X-9--9-9-9---|--6-X-6--6-6-6---|--6-X-6--6-6-6---|
A|--7-X-7--7-7-7---|--9-X-9--9-9-9---|--4-X-4--4-4-4---|--6-X-6--6-6-6---|
E|-----------------|--7-X-7--7-7-7---|-----------------|--4-X-4--4-4-4---|
    I' AM ONE OF      THOSE             MELODRAMATIC      FOOLS

e|-----------------|------------------|--------------------------------------|
B|-----------------|------------------|--------------------------------------|
G|-----------------|--9-X-9--9-9-9----|--------------------------------------|
D|--7-X-7--7-7-7---|--9-X-9--9-9-9----|--9-9-9-9--9-9-9-9--9-9-9-9--9-9-9-9--|
A|--7-X-7--7-7-7---|--7-X-7--7-7-7----|--9-9-9-9--9-9-9-9--9-9-9-9--9-9-9-9--|
E|--5-X-5--5-5-5---|------------------|--7-7-7-7--7-7-7-7--7-7-7-7--7-7-7-7--|
    NEUROTIC TO THE  BONE NO DOUBT ABOUT IT

(Chorus)
e|--------------------|--------------------|---------------------------------|
B|--------------------|--------------------|---------------------------------|
G|--------------------|--------------------|--9-X-9--9-9-9---9-X-9--9-9-9----|
D|--7-7-7-7--7-7-7-7--|--9-9-9-9-9-9-------|--9-X-9--9-9-9---9-X-9--9-9-9----|
A|--7-7-7-7--7-7-7-7--|--9-9-9-9-9-9-------|--7-X-7--7-7-7---7-X-7--7-7-7----|
E|--5-5-5-5--5-5-5-5--|--7-7-7-7-7-7-------|---------------------------------|
             SOMETIMES   I GIVE MYSELF THE    CREEPS

e|--------------------|--------------------|---------------------------------|
B|--------------------|--------------------|---------------------------------|
G|--------------------|--------------------|--9-X-9--9-9-9---9-X-9--9-9-9----|
D|--7-7-7-7--7-7-7-7--|--9-9-9-9-9-9-------|--9-X-9--9-9-9---9-X-9--9-9-9----|
A|--7-7-7-7--7-7-7-7--|--9-9-9-9-9-9-------|--7-X-7--7-7-7---7-X-7--7-7-7----|
E|--5-5-5-5--5-5-5-5--|--7-7-7-7-7-7-------|---------------------------------|
             SOMETIMES   MY MIND PLAYS TRICKS ON ME

e|--------------------|--------------------------|
B|--------------------|--------------------------|
G|--------------------|--------------------------|
D|--7-7-7-7--7-7-7-7--|--9-9-9-9--9-9-9-9--------|
A|--7-7-7-7--7-7-7-7--|--9-9-9-9--9-9-9-9--------|
E|--5-5-5-5--5-5-5-5--|--7-7-7-7--7-7-7-7--------|
    IT ALL KEEPS ADDING  UP I

e|--------------------------------|------------------------------|
B|--------------------------------|------------------------------|
G|--9---7-7--6-6-6-6--6-6-6-6-----|------------------------------|
D|--9---7-7--6-6-6-6--6-6-6-6-----|--7-7-7-7-7-7---9-9-9-9-9-9---|
A|--7---5-5--4-4-4-4--4-4-4-4-----|--7-7-7-7-7-7---9-9-9-9-9-9---|
E|--------------------------------|--5-5-5-5-5-5---7-7-7-7-7-7---|
    THINK I'M CRACKING UP            AM I JUST PARANOID OR AM I JUST

(Interlude)
e|--------------------------------|-----------------------------------|
B|--------------------------------|-----------------------------------|
G|--9--X--4-4--X--6-6--X--4-4-----|--9--X--4-4--X--6-6--X--4-4--------|
D|--9--X--4-4--X--6-6--X--4-4-----|--9--X--4-4--X--6-6--X--4-4--------|
A|--7--X--2-2--X--4-4--X--2-2-----|--7--X--2-2--X--4-4--X--2-2--------|
E|--------------------------------|-----------------------------------|
    STONED

(Verse)
e|-------------------------------------------------------------|
B|-------------------------------------------------------------|
G|--1-1-1-1-1---4-4-4-4-4-4--6-6-6-6-6-------------------------|
D|--2-2-2-2-2---4-4-4-4-4-4--6-6-6-6-6-----6-6-6-6-6-6---------|
A|--2-2-2-2-2---2-2-2-2-2-2--4-4-4-4-4-----6-6-6-6-6-6---------|
E|-----------------------------------------4-4-4-4-4-4---------|
    I WENT TO A SHRINK       TO an*lYZE MY DREAMS    SHE
                           
e|-------------------------------------------------------------|
B|-------------------------------------------------------------|
G|--2-2-2-2-2----1-1-1-1-1-1---4-4--4-4-4--4-4-4-4-4-4---------|
D|--2-2-2-2-2----2-2-2-2-2-2---4-4--4-4-4--4-4-4-4-4-4---------|
A|--0-0-0-0-0----2-2-2-2-2-2---2-2--2-2-2--2-2-2-2-2-2---------|
E|-------------------------------------------------------------|
    SAYS IT'S    SEX THAT'S    ME DOWN
    LACK OF      BRINGING 

e|-------------------------------------------------------------|
B|-------------------------------------------------------------|
G|--1-1-1-1-1---4-4-4-4-4-4---6-6-6-6-6------------------------|
D|--2-2-2-2-2---4-4-4-4-4-4---6-6-6-6-6---6-6-6-6-6-6----------|
A|--2-2-2-2-2---2-2-2-2-2-2---4-4-4-4-4---6-6-6-6-6-6----------|
E|----------------------------------------4-4-4-4-4-4----------|
    I WENT TO A WHORE HE     SAID MY      BORE   
                            LIFE'S A 

e|-------------------------------------------------------------|
B|-------------------------------------------------------------|
G|--2-2-2-2-2--1-1-1-1-1-1--4-4--4-4-4--4-4-4-4-4-4------------|
D|--2-2-2-2-2--2-2-2-2-2-2--4-4--4-4-4--4-4-4-4-4-4------------|
A|--0-0-0-0-0--2-2-2-2-2-2--2-2--2-2-2--2-2-2-2-2-2------------|
E|-------------------------------------------------------------|
    SO QUIT MY CAUSE IT'S   HER DOWN
    WHINING    BRINGING 

(Chorus)
e|-------------------------------------------------------------|
B|-------------------------------------------------------------|
G|------------------------------9-9-9-9-9--9-9-9-9-9-9---------|
D|--7-7-7-7-7---9-9-9-9-9-9-----9-9-9-9-9--9-9-9-9-9-9---------|
A|--7-7-7-7-7---9-9-9-9-9-9-----7-7-7-7-7--7-7-7-7-7-7---------|
E|--5-5-5-5-5---7-7-7-7-7-7------------------------------------|
    SOMETIMES I GIVE MYSELF THE CREEPS

e|-------------------------------------------------------------|
B|-------------------------------------------------------------|
G|-----------------------------------9-9-9-9-9--9-9-9-9-9-9----|
D|--7-7-7-7-7----9-9-9-9-9-9---------9-9-9-9-9--9-9-9-9-9-9----|
A|--7-7-7-7-7----9-9-9-9-9-9---------7-7-7-7-7--7-7-7-7-7-7----|
E|--5-5-5-5-5----7-7-7-7-7-7-----------------------------------|
    SOMETIMES MY MIND PLAYS TRICKS ON ME

e|--------------------|--------------------------|
B|--------------------|--------------------------|
G|--------------------|--------------------------|
D|--7-7-7-7--7-7-7-7--|--9-9-9-9--9-9-9-9--------|
A|--7-7-7-7--7-7-7-7--|--9-9-9-9--9-9-9-9--------|
E|--5-5-5-5--5-5-5-5--|--7-7-7-7--7-7-7-7--------|
    IT ALL KEEPS ADDING  UP I

e|--------------------------------|-----------------------------------|
B|--------------------------------|-----------------------------------|
G|--9---7-7--6-6-6-6--6-6-6-6-----|-----------------------------------|
D|--9---7-7--6-6-6-6--6-6-6-6-----|--7-7-7-7-7-7---9-9-9-9-9-9--------|
A|--7---5-5--4-4-4-4--4-4-4-4-----|--7-7-7-7-7-7---9-9-9-9-9-9--------|
E|--------------------------------|--5-5-5-5-5-5---7-7-7-7-7-7--------|
    THINK I'M CRACKING UP            AM I JUST PARANOID OR AM I JUST

(Interlude)
e|--------------------------------|-----------------------------------|
B|--------------------------------|-----------------------------------|
G|--9--X--4-4--X--6-6--X--4-4-----|--9--X--4-4--X--6-6--X--4-4--------|
D|--9--X--4-4--X--6-6--X--4-4-----|--9--X--4-4--X--6-6--X--4-4--------|
A|--7--X--2-2--X--4-4--X--2-2-----|--7--X--2-2--X--4-4--X--2-2--------|
E|--------------------------------|-----------------------------------|
   STONED

e|--------------------------------|-----------------------------------|
B|--------------------------------|-----------------------------------|
G|--9--X--4-4--X--6-6--X--4-4-----|--9--X--4-4--X--6-6--X--4-4--------|
D|--9--X--4-4--X--6-6--X--4-4-----|--9--X--4-4--X--6-6--X--4-4--------|
A|--7--X--2-2--X--4-4--X--2-2-----|--7--X--2-2--X--4-4--X--2-2--------|
E|--------------------------------|-----------------------------------|

(Bridge)
e|-------------------------------------------------------------|
B|-------------------------------------------------------------|
G|-------------------------------------------------------------|
D|--7-7-7-7--7-7-7-7--7-7-7-7--7-7-7-7----9-9-9-9-9-9-9-9------|
A|--7-7-7-7--7-7-7-7--7-7-7-7--7-7-7-7----9-9-9-9-9-9-9-9------|
E|--5-5-5-5--5-5-5-5--5-5-5-5--5-5-5-5----7-7-7-7-7-7-7-7------|
    GRASPING TO                           CONTROL   SO I BETTER

e|-------------------------------------------------------------|
B|-------------------------------------------------------------|
G|--1-1-1-1-1---4-4-4-4-4-4--6-6-6-6-6-------------------------|
D|--2-2-2-2-2---4-4-4-4-4-4--6-6-6-6-6-----6-6-6-6-6-6---------|
A|--2-2-2-2-2---2-2-2-2-2-2--4-4-4-4-4-----6-6-6-6-6-6---------|
E|-----------------------------------------4-4-4-4-4-4---------|
    HOLD        ON

(Instrumental)
e|-------------------------------------------------------------|
B|-------------------------------------------------------------|
G|--2-2-2-2-2----1-1-1-1-1-1---4-4--4-4-4--4-4-4-4-4-4---------|
D|--2-2-2-2-2----2-2-2-2-2-2---4-4--4-4-4--4-4-4-4-4-4---------|
A|--0-0-0-0-0----2-2-2-2-2-2---2-2--2-2-2--2-2-2-2-2-2---------|
E|-------------------------------------------------------------|

e|-------------------------------------------------------------|
B|-------------------------------------------------------------|
G|--1-1-1-1-1---4-4-4-4-4-4--6-6-6-6-6-------------------------|
D|--2-2-2-2-2---4-4-4-4-4-4--6-6-6-6-6-----6-6-6-6-6-6---------|
A|--2-2-2-2-2---2-2-2-2-2-2--4-4-4-4-4-----6-6-6-6-6-6---------|
E|-----------------------------------------4-4-4-4-4-4---------|

e|-------------------------------------------------------------|
B|-------------------------------------------------------------|
G|--2-2-2-2-2----1-1-1-1-1-1---4-4--4-4-4--4-4-4-4-4-4---------|
D|--2-2-2-2-2----2-2-2-2-2-2---4-4--4-4-4--4-4-4-4-4-4---------|
A|--0-0-0-0-0----2-2-2-2-2-2---2-2--2-2-2--2-2-2-2-2-2---------|
E|-------------------------------------------------------------|

(Chorus)
e|-------------------------------------------------------------|
B|-------------------------------------------------------------|
G|------------------------------9-9-9-9-9--9-9-9-9-9-9---------|
D|--7-7-7-7-7---9-9-9-9-9-9-----9-9-9-9-9--9-9-9-9-9-9---------|
A|--7-7-7-7-7---9-9-9-9-9-9-----7-7-7-7-7--7-7-7-7-7-7---------|
E|--5-5-5-5-5---7-7-7-7-7-7------------------------------------|
    SOMETIMES I GIVE MYSELF THE CREEPS

e|-------------------------------------------------------------|
B|-------------------------------------------------------------|
G|-----------------------------------9-9-9-9-9--9-9-9-9-9-9----|
D|--7-7-7-7-7----9-9-9-9-9-9---------9-9-9-9-9--9-9-9-9-9-9----|
A|--7-7-7-7-7----9-9-9-9-9-9---------7-7-7-7-7--7-7-7-7-7-7----|
E|--5-5-5-5-5----7-7-7-7-7-7-----------------------------------|
   SOMETIMES MY MIND PLAYS TRICKS ON ME

e|--------------------|--------------------------|
B|--------------------|--------------------------|
G|--------------------|--------------------------|
D|--7-7-7-7--7-7-7-7--|--9-9-9-9--9-9-9-9--------|
A|--7-7-7-7--7-7-7-7--|--9-9-9-9--9-9-9-9--------|
E|--5-5-5-5--5-5-5-5--|--7-7-7-7--7-7-7-7--------|
    IT ALL KEEPS ADDING  UP I

e|--------------------------------|---------------------------------|
B|--------------------------------|---------------------------------|
G|--9---7-7--6-6-6-6--6-6-6-6-----|---------------------------------|
D|--9---7-7--6-6-6-6--6-6-6-6-----|--7-7-7-7-7-7---9-9-9-9-9-9------|
A|--7---5-5--4-4-4-4--4-4-4-4-----|--7-7-7-7-7-7---9-9-9-9-9-9------|
E|--------------------------------|--5-5-5-5-5-5---7-7-7-7-7-7------|
    THINK I'M CRACKING UP            AM I JUST PARANOID OR AM I JUST

(Outro)
e|-----------------------------------------------------------|
B|-----------------------------------------------------------|
G|--9-9-9-9-9--6-6-6-6-6-6---------9-9-9---------------------|
D|--9-9-9-9-9--6-6-6-6-6-6--7-7-7--9-9-9--9-9-9-9-9-9--------|
A|--7-7-7-7-7--4-4-4-4-4-4--7-7-7--7-7-7--9-9-9-9-9-9--------|
E|--------------------------5-5-5---------7-7-7-7-7-7--------|
    STONED

e|-----------------------------------------------------------|
B|-----------------------------------------------------------|
G|--9-9-9-9-9--6-6-6-6-6-6---------9-9-9---------------------|
D|--9-9-9-9-9--6-6-6-6-6-6--7-7-7--9-9-9--9-9-9-9-9-9--------|
A|--7-7-7-7-7--4-4-4-4-4-4--7-7-7--7-7-7--9-9-9-9-9-9--------|
E|--------------------------5-5-5---------7-7-7-7-7-7--------|

e|-----------------------------------------------------------|
B|-----------------------------------------------------------|
G|--9-9-9-9-9--6-6-6-6-6-6---------9-9-9---------------------|
D|--9-9-9-9-9--6-6-6-6-6-6--7-7-7--9-9-9--9-9-9-9-9-9--------|
A|--7-7-7-7-7--4-4-4-4-4-4--7-7-7--7-7-7--9-9-9-9-9-9--------|
E|--------------------------5-5-5---------7-7-7-7-7-7--------|

e|-----------------------------------------------------------|
B|-----------------------------------------------------------|
G|--9-9-9-9-9--6-6-6-6-6-6------9-----2-----4----------------|
D|--9-9-9-9-9--6-6-6-6-6-6---7--9--9--2--2--4----------------|
A|--7-7-7-7-7--4-4-4-4-4-4---7--7--9--0--2--2----------------|
E|---------------------------5-----7-----0-------------------|            
Submit corrections


        Basket Case lessons Hard to play? Try these video lessons and learn fast Basket Case lessons
        
↑ Back to top | Tablatures and chords for acoustic guitar and electric guitar, ukulele, drums are parodies/interpretations of the original songs. You may use it for private study, scholarship, research or language learning purposes only