» » »

Green Day - American Idiot Tabs

Artists:  A B C D E F G H I J K L M N O P Q R S T U V W X Y Z # 

American Idiot Tabs

(ver. 13) Click to play this song!
Green Day
 Rating:
4.3/5 (18 votes)

 American Idiot lessons Tabs too difficult? Try these video lessons and learn fast
 
                e|------------------------------------------------------------------------------------------------------------
B|------------------------------------------------------------------------------------------------------------
G|-10-10-10-10-10-10-8-6/-8-8-8-8-8-10-8-6-5------------------------------------------------------------------
D|--x--x--x--x--x--x-x-x--x-x-x-x-x--x-x-x-x------------------------------------------------------------------
A|--8--8--8--8--8--8-6-4/-6-6-6-6-6--8-6-4-3------------------------------------------------------------------
E|------------------------------------------------------------------------------------------------------------

e|------------------------------------------------------------------------------------------------------------
B|--------------------------9---11---13---11--9\--------------------------------------------------------------
G|-3-3-3-3-3-5-6-5-3/-8-8-8--8-8--8-8--8-8--8-----------------------------------------------------------------
D|------------------------------------------------------------------------------------------------------------
A|------------------------------------------------------------------------------------------------------------
E|------------------------------------------------------------------------------------------------------------

e|------------------------------------------------------------------------------------------------------------
B|------------------------------------------------------------------------------------------------------------
G|-10-10-10-10-10-10-8-6/-8-8-8-8-8-10-8-6-5------------------------------------------------------------------
D|--x--x--x--x--x--x-x-x--x-x-x-x-x--x-x-x-x------------------------------------------------------------------
A|--8--8--8--8--8--8-6-4/-6-6-6-6-6--8-6-4-3------------------------------------------------------------------
E|------------------------------------------------------------------------------------------------------------

e|------------------------------------------------------------------------------------------------------------
B|------------------------------------------------------------------------------------------------------------
G|-3-3-3-3-3-5-6-5-3/-8/-13-----------------------------------------------------------------------------------
D|------------------------------------------------------------------------------------------------------------
A|------------------------------------------------------------------------------------------------------------
E|------------------------------------------------------------------------------------------------------------            
Submit corrections


        American Idiot lessons Hard to play? Try these video lessons and learn fast American Idiot lessons
        
↑ Back to top | Tablatures and chords for acoustic guitar and electric guitar, ukulele, drums are parodies/interpretations of the original songs. You may use it for private study, scholarship, research or language learning purposes only