» » »

Grease - We Go Together' Bass

Artists:  A B C D E F G H I J K L M N O P Q R S T U V W X Y Z # 

We Go Together' Bass

(ver. 3) Click to play this song!
Grease
 Rating:
4/5 (4 votes)

 We Go Together' lessons Tabs too difficult? Try these video lessons and learn fast
 
                
It's my first tab so comment if you see any mistakes so I can fix it. Otherwise, bass away! 
Intro:
G|-------|-------|---2-5--|-------|-------|-------|---4-7--|------|
D|---2-5-|-----2-|-3------|-5-7-5-|---4-7-|-----4-|-5------|-7-9-7|
A|-3-----|---3---|--------|-------|-5-----|---5---|--------|------|
E|-------|-5-----|--------|-------|-------|-7-----|--------|------|

Verse 1:
We go together...
G|-------|-------|---4-7--|-------|
D|---4-7-|-----4-|-5------|-7-9-7-|
A|-5-----|---5---|--------|-------|
E|-------|-7-----|--------|-------|      x3

G|-------|-------|---4-7--|----------|
D|---4-7-|-----4-|-5------|-10-8-7-5-|
A|-5-----|---5---|--------|----------|
E|-------|-7-----|--------|----------|

Verse 2:
We're one of a kind...
|-------|-------|---4-7--|-------|
|---4-7-|-----4-|-5------|-7-9-7-|
|-5-----|---5---|--------|-------|
|-------|-7-----|--------|-------|          x3

|-------|-------|--------|-------|
|---4-7-|-------|---4-7--|-----4-|
|-5-----|-------|-5------|-5-7---|
|-------|-7-7-7-|--------|-------|

When we go out...
G|---4--8-10-8--4-|---4--8-10-8--4-|
D|-5--------------|-5--------------|
A|----------------|----------------|
E|----------------|----------------|

G|-------------|-------------|
D|---4-7-9-7-4-|---4-7-9-7-4-|
A|-5-----------|-5-----------|
E|-------------|-------------|


G|---4--8-10-8--4-|---4--8-10-8--4-|
D|-5--------------|-5--------------|
A|----------------|----------------|
E|----------------|----------------|

G|-----4-5--4---|--------------|
D|---6--------6-|-7------------|
A|-7------------|--------------|
E|--------------|--------------|


Ramalamalama...
G|-----------|-----------|
D|-5---5-5-4-|-2---2-2-4-|
A|---5-------|---2-------|
E|-----------|-----------|        x12

G|-------|-------|
D|-0-----|-------|
A|-------|-0-2-4-|
E|-------|-------|

Verse 3:
We're for each other...
G|-------|-------|---4-7--|-------|
D|---4-7-|-----4-|-5------|-7-----|
A|-5-----|---5---|--------|-------|
E|-------|-7-----|--------|---7-9-|            x4

Outro:
We'll always be together...
G|-------|-------|---4--7-|-------|
D|---4-7-|-----4-|-5------|-7-----|
A|-5-----|---5---|--------|-------|
E|-------|-7-----|--------|---7-9-|   x5

G|-------|
D|-0-----|
A|-------|
E|-------|
            
Submit corrections


        We Go Together' lessons Hard to play? Try these video lessons and learn fast We Go Together' lessons
        
↑ Back to top | Tablatures and chords for acoustic guitar and electric guitar, ukulele, drums are parodies/interpretations of the original songs. You may use it for private study, scholarship, research or language learning purposes only