» » »

Grease - We Go Together' Tabs

Artists:  A B C D E F G H I J K L M N O P Q R S T U V W X Y Z # 

We Go Together' Tabs

(ver. 1) Click to play this song!
Grease
 Rating:
4/5 (4 votes)

 We Go Together' lessons Tabs too difficult? Try these video lessons and learn fast
 
                -----------------------------------------------------------------------------
                             WE GO TOGETHER-Grease
-----------------------------------------------------------------------------

Tuning: Standard
   Bb   Gm   Eb   F   Bb7   C    F7  
e|-1----3----3----1----1----0----1-|
B|-3----3----4----1----3----1----1-|
G|-3----3----3----2----1----0----2-|
D|-3----5----5----3----3----2----1-|
A|--------------------------3----3-|
E|-------------------------------1-|

Intro

e|x--------------1---------------1---------------3-------------1-------------|
B|1--1--1---1----1---------------2---------------4-------------3--3--3---3--1|
G|1-----------3--1--1--1---1--0--1------------1--3-------------3-------------|
D|1--------------3---------------3--3--3---3-----5-------------3-------------|
A|---------------3---------------4---------------3---------------------------|
E|---------------1---------------1-------------------------------------------|

e|3---------------3---------------1------------------------------------------|
B|3---------------4---------------1------------------------------------------|
G|3--3--3---3--2--3------------3--2------------------------------------------|
D|5---------------5--5--5---5-----3------------------------------------------|
A|------------------------------------------------0--------------------------|
E|------------------------------------------1--3-----------------------------|

[Strumming pattern generally d.du.udu]

Bb               Gm
1.    We go together like
     Eb                                     F
    ramma lamma lamma ka dingedy ding de dong,
Bb                         Gm
    remembered forever as
        Eb                                        F
    shoobop shoo wadda wadda yippidy boom de boom.
 Bb                        Gm                             
    Chang chang changedy chang she-bop,
Eb                  F                 Bb - Gm        Eb     F
    that's the way it should be,          wa-ooh, yeah !
 
    Bb                        Gm
2.     We're one of a kind, like
     Eb                         F
    dip de dip de dip doo wap de dooby doo,
Bb                        Gm
    our names are signed,
         Eb                                                     F
    a boogidy boogidy boogidy boogidy shooby be do-wap shoo-wop.
Bb                         Gm
    Chang chang changedy chang she-bop,
Eb                     F         Bb     Eb                   Bb   - Bb7
    we'll always be like wah, wah-wah-wah-one.
 
Eb              
    When we go out at night, and stars are shining bright,
Bb                                      - Bb7
    up in the skies above,
Eb
    or at the high school dance, where you can find romance,
       C                         F  F7
    maybe it might be lo-o-o-o-o-ove.
 
      Bb                                    Gm
    Ramma lamma lamma ka dingidy ding de dong,
Bb                                               Gm
    shoo bop shoo wadda wadda yippidy boom de boom.
Bb                          Gm
    Chang chang, changidy chang she bop,
     Bb                       Gm
    dip de dip de dip doo wap de dooby doo.
       Bb                                                   Gm
    Boogidy boogidy boogidy boogidy shooby be do-wap shoo-wop,
        Bb                                      Gm
    shanna nanna nanna nanna yippidy dep de doo!
      Bb                                   Gm
    Ramma lamma lamma ka dingidy ding de dong,
        Bb                                        Gm
    shoo bop shoo wadda wadda yippidy boom de boom.
Bb                          Gm
    Chang chang, changidy chang she bop,
     Bb                        Gm
    dip de dip de dip doo wap de dooby doo.
       Bb                                                  Gm
    Boogidy boogidy boogidy boogidy shooby be do-wap shoo-wop,
       Bb                                      Gm
    shanna nanna nanna nanna yippidy dep de doo!
            F                                  F7
    A whomp bop a loo-bop a whomp bam boom!
 
    Bb- Gm- Eb- F  (4x)
 
   Bb                        Gm
3.    We'e for each other like
           Eb                                  F
    a whop bop a loo-bop, a whop bam boom,
Bb                   Gm
    just like my brother, each
        Eb                                       F
    shanna nanna nanna nanna yippidy dip de doo.
Bb                        Gm
    Chang chang changidy chang she-bop,
Eb                     F      Bb    - Gm        Eb      F
    we'll always be together,        wa-ooh! Yeah!
              Bb        - Gm           Eb       - F
    We'll always           be together.          (repeat 6 x and fade)
            
Submit corrections


        We Go Together' lessons Hard to play? Try these video lessons and learn fast We Go Together' lessons
        
↑ Back to top | Tablatures and chords for acoustic guitar and electric guitar, ukulele, drums are parodies/interpretations of the original songs. You may use it for private study, scholarship, research or language learning purposes only