» » »

Grease - We Go Together' Bass

Artists:  A B C D E F G H I J K L M N O P Q R S T U V W X Y Z # 

We Go Together' Bass

(ver. 2) Click to play this song!
Grease
 Rating:
3.3/5 (6 votes)

 We Go Together' lessons Tabs too difficult? Try these video lessons and learn fast
 
                -------------------------------------------------------------------------------
                             WE GO TOGETHER - GREASE OST
-------------------------------------------------------------------------------

Tuning: EADG

INTRO
G|--------------------------------|----------------------------------|
D|------------------x3x6---x3---- |------------------x5x8---x5-------|
A|---x3x6-----x3--4-------6--x6--|---x5x8-----x5--6-------8--x8------|
E|--4------1x4--------------------|--6------3x6----------------------| x1

CHORUS 1 | PART 1
G|-----------------------------------|
D|------------------x5x8---x5--------|
A|---x5x8-----x5--6-------8--x8------|
E|--6------3x6-----------------------| x3

G|-----------------------------------|
D|------------------x5x8-------------|
A|---x5x8-----x5--6-------8-6-5------|
E|--6------3x6------------------8----| x1

CHORUS 1 | PART 2
G|-----------------------------------|
D|------------------x5x8---x5--------|
A|---x5x8-----x5--6-------8--x8------|
E|--6------3x6-----------------------| x3

G|-----------------------------------|
D|-----------------------------------|
A|---x5x8--6-6-6----x5x8--x3x5-------|
E|--6--------------6------6----------| x1

VERSE PART 1
G|-------------5---------------------------------|
D|-----3/5--8----85------------------5-----------|
A|--6------------------------3/5--8----85--------|
E|------------------------6----------------------| x1

VERSE PART 2
G|-------------5---------------------2-----------|
D|-----3/5--8----85----------1/2--5----52-3------|
A|--6---------------------3----------------------|
E|-----------------------------------------------| x1

BRIDGE PART 1
G|---------------------------|
D|--x7-8x8-x7-5x5-x7---------|
A|---------------------------|
E|---------------------| x12-|

G|------------------2------|
D|--3-------x3--5----------|
A|-------------------------|
E|-------------------------| x1

BRIDGE PART 2
G|-----------------------------------------------------------------------------|
D|-----------------------------------------------------------------------------|
A|--33-x3-33-x3----------------------------------------------------------------|
E|----------------55-x5-55-x5--11-x1-x11-x1--44-x4-44-x4--33-x3-33-x3----------|

G|-----------------------------------------------------------------------------|
D|------------------------------------x4-4h55-x5-4h55-x5-----------------------|
A|---------------x3-3h55-x5-3h55-x5--------------------------------------------|
E|--55-x5-55-x5----------------------------------------------------------------|x1

CHORUS 2
G|------------------x2x5---x2-----------|
D|---x2x5-----x2--3-------5--x5---------|
A|--3------0x3--------------------------|
E|-------------------------------- |x12-|


| /  slide up
| \  slide down
| h  hammer-on
| p  pull-off
| ~  vibrato
| +  harmonic
| x  Mute note
===============================================================================
            
Submit corrections


        We Go Together' lessons Hard to play? Try these video lessons and learn fast We Go Together' lessons
        
↑ Back to top | Tablatures and chords for acoustic guitar and electric guitar, ukulele, drums are parodies/interpretations of the original songs. You may use it for private study, scholarship, research or language learning purposes only