» » »

Graham Coxon - You And I Tabs

Artists:  A B C D E F G H I J K L M N O P Q R S T U V W X Y Z # 

You And I Tabs

(ver. 2) Click to play this song!
Graham Coxon
 Rating:
4/5 (4 votes)

 You And I lessons Tabs too difficult? Try these video lessons and learn fast
 
                -----------------------------------------------------------------------
YOU & I – Graham Coxon
-----------------------------------------------------------------------
Standard Tuning

This is a great song to play and not too difficult, 
I thinks its nearly 100% accurate. 
Listen to the track to get the strumming rythym and palm mutes.

Chords used:
A:577655  C:x35553  G:355433  F#:244322  E:022100  
E9:x767xx  E*:x79997  B:799877

A
You and i gotta think for a while
            C         G                                  A 
Look to the sky gotta decide if we're gonna see tomorrow
A
You and i gotta look to the sky
             C             G                                 F#
Are we gonna die wondering why life ain't nothing but sorrow?
                D    A
'Cos it's gonna be a while
              D       A
'Til i get to see you smile
              D   G  F    E
And you gotta let me know
E
Oh maybe you won't

   A                D   A              D     A                 D  A    E9
e|------------------8----------------8-10^---------------------------------|
B|-10--10--10-10-10-----10--10-10-10---------10--10--10-10-10-10-10-10-----|
G|---------------------------------------------------------------------9~--|
D|-------------------------------------------------------------------------|
A|-------------------------------------------------------------------------|
E|-------------------------------------------------------------------------|

Repeat first verse with last line like this:

Riff 1:     E                  
         e|--------------------------| 
         B|--------------------------|
         G|--------------------------|
         D|-----0-2222p0-------------|
         A|-0-3----------3-0---------|
         E|--------------------------|
Oh maybe                  you won't

A   D A   D A   D A   D  
(Listen to the track to get the strumming rythym here and repeat on next lines)

A                         D
Never met a girl like you before
A                    D
I don’t think I ever will again
E*            B      D             A (1 down stroke each chord on this line)
Why don’t you smile, why don’t you smile
A                     D
Never thought I’d see walking out that door
A                    D
I don’t think I ever will again
E*            B    D             A    D             A
Why don’t you see, why can’t you see, why can’t you see


D              A   D              A
La la la la la la, La la la la la la
D        G     F    E (Riff 1)
La la la la la la, 


Solo (with flanger effect)
   A                        C         G                 A             
e|-----------------------------------------------------------------------|
B|-----------------------------------------------------------------------|
G|-----------------------------------------------------------------------| 
D|-11-------12-11--------------------------------------------------------|
A|----12-10-------12-10-12--10----10-------------------------------------|
E|-----------------------------12-----12---10-9-10-9-10-9----------------|

   A                        C         G                 F#             
e|-----------------------------------------------------------------------|
B|-----------------------------------------------------------------------|
G|-----------------------------------------------------------------------| 
D|-11-------12-11--------------------------------------------------------|
A|----12-10-------12-10-12--10----10-------------------------------------|
E|-----------------------------12-----12---10-9-10-9-10-9----------------|

   D                 A    D                 A   D           G    F    E             
e|-----------------------------------------------------------------------|
B|------------------------7-8-9-10-11-12-13-14----14---12---10---10---9--|
G|-7-8-9-10-11-12-13-14---7-8-9-10-11-12-13-14--14---12---11---10----9---|
D|-----------------------------------------------------------------------|
A|-----------------------------------------------------------------------|
E|-----------------------------------------------------------------------|

A for a few bars (palm mute with flanger effect)

A
You and i gotta think for a while
            C         G                                 A
Look to the sky gotta decide if we're gonna see tomorrow
A
You and i gotta think for a while
            C         G                                 A
Look to the sky gotta decide if we're gonna see tomorrow
A
You and i gotta think for a while
            C         G                                 A
Look to the sky gotta decide if we're gonna see tomorrow
A
You and i gotta think for a while
            C         G                                 F#
Look to the sky gotta decide if we're gonna see tomorrow
                D    A
'Cos it's gonna be a while
              D       A
'Til i get to see you smile
              D   G  F    E
And you gotta let me know

D              A   D              A
La la la la la la, La la la la la la
D        G     F    E (Riff 1)
La la la la la la, 

D              A   D              A
La la la la la la, La la la la la la
D        G     F    E (Riff 1)
La la la la la la, 

   A                D   A              D     A                 D    A
e|------------------8----------------8-10^------------------------------|
B|-10--10--10-10-10-----10--10-10-10---------10--10--10-10-10-10-10-10--|
G|----------------------------------------------------------------------|
D|----------------------------------------------------------------------|
A|----------------------------------------------------------------------|
E|----------------------------------------------------------------------|

Thanks for looking.
            
Submit corrections


        You And I lessons Hard to play? Try these video lessons and learn fast You And I lessons
        
↑ Back to top | Tablatures and chords for acoustic guitar and electric guitar, ukulele, drums are parodies/interpretations of the original songs. You may use it for private study, scholarship, research or language learning purposes only