» » »

Graham Coxon - Just A State Of Mind Chords

Artists:  A B C D E F G H I J K L M N O P Q R S T U V W X Y Z # 

Just A State Of Mind Chords

(ver. 1) Click to play this song!
Graham Coxon
 Rating:
4.2/5 (5 votes)

 Just A State Of Mind lessons Tabs too difficult? Try these video lessons and learn fast
 
                

------|---------|-------------2--------------|--2---------|--|----------------|
------|---------|-4---5---4---2---4--4---5---|--2---4--0--|--|----------------|
------|-9-------|-5---6---5---x---4--5---6---|--x---4--0--|--|----------------|
------|-9-------|-6---7---6---4---4--6---7---|--4---4--0--|2x|----------------|
------|-7-------|-6---7---6---4---2--6---7---|--4---2-----|--|----------------|
------|-0-------|-4---5---4---2------4---5---|--2---------|--|----------------|
    Intro Chords  Verse Chords                 Chords 2

------|-------------0--|-------|----------|--------|--|--------------|--------|
------|-2-------1---0--|-------|----------|--------|--|--------------|--------|
------|-1---1---0---1--|-------|----------|--------|--|--------------|--------|
------|-x---2---2---2--|-------|----------|--------|2x|--------------|--------|
------|-0---2---3---2--|-------|----------|--------|--|--------------|--------|
------|-----0---3---0--|-------|----------|--------|--|--------------|--------|
     Chorus Chords       Verse   Chords 2   Chorus     end on chord 2

------|-------------------|--0--|---------------------------------------|-----|
------|-5-----4----5---1--|--0--|----0---0---0---0--0--0--0---0--0--0---|-----|
------|-6-----5----6---0--|--1--|----x---x---x---x--x--x--x---x--x--x---|-----|
------|-6-----6----7---2--|--2--|----9---7---6---7--6--7--9---7--6--6---|-----|
------|-4-----6----7---3--|--2--|-2--11--9---7---9--7--9--11--9--7--7---|-----|
------|-------4----5---3--|--0--|-3--0---0---0---0--0--0--0---0--0--7---|-----|
      "oooo"              1st end  2nd end (Instrumental)

------|----------------------------|---------------|------|-------|----------|
------|----------------------------|---------------|------|-------|----------|
------|----------------------------|---------------|------|-------|----------|
------|----------------------------|---------------|------|-------|----------|
------|----------------------------|---------------|------|-------|----------|
------|----------------------------|---------------|------|-------|----------|
       Then mess with verse chords   Chorus chords   Verse  Chorus Chords 2

------|-------------|-------------------------|-------------------------------|
------|-------------|---------------------0---|-------------------------------|
------|-------------|---------------------1---|-------------------------------|
------|-------------|-9---7---6---2-------2---|-------------------------------|
------|-------------|-11--9---7---3--3p0--2---|-------------------------------|
------|-------------|---------0---0--0----0---|-------------------------------|
      "ooo" part 2x   Ending chords
            
Submit corrections


        Just A State Of Mind lessons Hard to play? Try these video lessons and learn fast Just A State Of Mind lessons
        
↑ Back to top | Tablatures and chords for acoustic guitar and electric guitar, ukulele, drums are parodies/interpretations of the original songs. You may use it for private study, scholarship, research or language learning purposes only