» » »

Graham Coxon - You And I Tabs

Artists:  A B C D E F G H I J K L M N O P Q R S T U V W X Y Z # 

You And I Tabs

(ver. 1) Click to play this song!
Graham Coxon
 Rating:
4.4/5 (7 votes)

 You And I lessons Tabs too difficult? Try these video lessons and learn fast
 
                artist : Graham Coxon
song : You & I

tuning standard
./ palm muted
h/ hammer on

intro:

e|-------------------------------------------------------------|
b|-------------------------------------------------------------|
g|-------------------------------------------------------------|
d|--7------7------10-----5-------------------------------------|
a|--7-x18--7-x10--10-x4--5-x8----------------------------------|
E|--5------5------8------3-------------------------------------|
    .      .      .      .

e|-------------------------------------------------------------|
b|-------------------------------------------------------------|
g|-------------------------------------------------------------|
d|--7------7------10-----5-----4-------------------------------|
a|--7-x10--7-x10--10-x4--5-x8--4-x8----------------------------|
E|--5------5------8------3-----2-------------------------------|
    .      .      .      .     .

e|--------------------------------------------------------------|
b|--------------------------------------------------------------|
g|--7-----------7-----------7-----------------------------------|
d|--7-----7-----7-----7-----7------10-----9---------------------|
a|--5-x8--7-x8--5-x8--7-x8--5-x8---10-x8--9-x8------------------|
E|--5-----5-----5-----5-----5-------8-----7---------------------|
    .     .     .     .     .       .     .

e|--------------------------------------------------------------|
b|--------------------------------------------------------------|
g|-------55-------9---------------------------------------------|
d|--7-7--55----7--9---------------------------------------------|
a|--7-7--77----7--7---------------------------------------------|
E|--5-5--77----5--7---------------------------------------------|
    ------------------------------------------------------------|
       x3

verse:

e|-------------------------------------------------------------|
b|-------------------------------------------------------------|
g|-------------------------------------------------------------|
d|--7------10-----5-----7------7------10-----5-----4-----------|
a|--7-x10--10-x4--5-x8--7-x10--7-x10--10-x4--5-x8--4-x8--------|part 1
E|--5------8------3-----5------5------8------3-----2-----------|

e|-------------------------------------------------------------|
b|-------------------------------------------------------------|
g|--7-----------7-----------7----------------------------------|
d|--7-----7-----7-----7-----7-----10-----9---------------------|part 2
a|--5-x8--7-x8--5-x8--7-x8--5-x8--10-x8--9-x8------------------|
E|--5-----5-----5-----5-----5------8-----7---------------------|

e|-------------------------------------------------------------|
b|-------------------------------------------------------------|
g|-------------------------------------------------------------|
d|-------------------------------------------------------------|
a|--5-6-7-8-8-5h6p5----------- riff 1 -------------------------|
E|------------------6-5----------------------------------------|

pre chorus:

e|--------------------------------------------------------------|
b|--------------------------------------------------------------|
g|-------77--9-9--77-------77--9-9--77-------77-----------------|
d|--7-7--77--9-9--77--7-7--77--9-9--77--7-7--77-----------------|
a|--7-7--55--7-7--55--7-7--55--7-7--55--7-7--55-----------------|
E|--5-5--55--7-7--55--5-5--55--7-7--55--5-5--55-----------------|
    -------           -------           ------------------------|
      x6                x3                 x2

chorus:  la,la,....

e|--------------------------------------------------------------|
b|--------------------------------------------------------------|
g|--777--999--------777-------5---------------------------------|
d|--777--999--7-----777--777--5---------------------------------|
a|--555--777--7-x8--555--777--3-x8----- riff 1 -----------------|
E|--555--777--5-----555--555--3---------------------------------|
   -------------------------------------------------------------|
          x2

solo: with flanger

e|-------------------------------------------------------------|
b|-------------------------------------------------------------|
g|--7--6-7-----------------------------------------------------|
d|------7----7--6-7---5--4-5-----------------------------------|
a|---------------7--------5----5--4-5---5-4-5-4-5-4-5-4~-------| x2
E|---------------------------------5---------------------------|

e|-------------------------------------------------------------|
b|-------------------------------------------------------------|
g|-7-8-9-10-11-12-13-14~----7-8-9-10-11-12-13-14~--------------|
d|-------------------------------------------------------------|
a|-------------------------------------------------------------|
E|-------------------------------------------------------------|

e|----------------------------------------------------xx-------|
b|--------15-------13-------12--------10~--------9~---xx-------|
g|--13h14-----11h12----10h11-------8h9--------7h8-----xx-------|
d|----------------------------------------------------xx-x35---|
a|----------------------------------------------------xx-------|
E|----------------------------------------------------xx-------|


repeat verse part 1 with palm mute

repeat verse part 1 normal

repeat chorus (la,la...) x2


thanks, jim
            
Submit corrections


        You And I lessons Hard to play? Try these video lessons and learn fast You And I lessons
        
↑ Back to top | Tablatures and chords for acoustic guitar and electric guitar, ukulele, drums are parodies/interpretations of the original songs. You may use it for private study, scholarship, research or language learning purposes only