Home » G » Goo Goo Dolls »

Goo Goo Dolls - Iris Tabs

Artists:  A B C D E F G H I J K L M N O P Q R S T U V W X Y Z # 

Iris Tabs

(ver. 2) Click to play this song!
Goo Goo Dolls

Intro/interlude

   B     A       G     F#
e:-----|-------|-----|----------
B:-----|-------|-----|----------
G:-7-77|-6-6-67|-4-44|-2-24-22-- x2
D:-0-00|-0-0-00|-0-00|-0-00-00--
A:-x-xx|-x-x-xx|-x-xx|-x-xx-xx--
E:-7-77|-5-5-55|-3-33|-2-22-22--

Verse
  
  B	  c#     D      D       B      A      G      G	
e:----------------------------|----------------------------|
B:----------------------------|----------------------------|
G:----7-7----7-7----7-7----7-7|----7-7----7-7----7-7----7-7|
D:-----0------0------0------0-|-----0------0------0------0-| x4
A:--------4-4----5-5----5-5---|----------------------------|
E:-7-7------------------------|-7-7----5-5----3-3----3-3---|

   G
e:--------10--------------------
B:------8-----------------------
G:-7--7-------------------------
D:-0----------------------------
A:-x----------------------------
E:-3----------------------------

On second time through the verse hit hit the 3x07 chord and play this above

Chorus

   B   A   G   G
e:---|---|---|---|--------------
B:---|---|---|---|--------------
G:-7-|-6-|-4-|-4-|--------------
D:-0-|-0-|-0-|-0-|--------------
A:-x-|-x-|-x-|-x-|--------------
E:-7-|-5-|-3-|-3-|--------------

interlude
 
   B     A       G     F#
e:-----|-------|-----|----------
B:-----|-------|-----|----------
G:-7-77|-6-6-67|-4-44|-2-24-22-- x2
D:-0-00|-0-0-00|-0-00|-0-00-00--
A:-x-xx|-x-x-xx|-x-xx|-x-xx-xx--
E:-7-77|-5-5-55|-3-33|-2-22-22--

Verse 2

  B	  c#     D      D       B      A      G      G	
e:----------------------------|----------------------------|
B:----------------------------|----------------------------|
G:----7-7----7-7----7-7----7-7|----7-7----7-7----7-7----7-7|
D:-----0------0------0------0-|-----0------0------0------0-| x2
A:--------4-4----5-5----5-5---|----------------------------|
E:-7-7------------------------|-7-7----5-5----3-3----3-3---|

Chorus

   B   A   G   G
e:---|---|---|---|--------------
B:---|---|---|---|--------------
G:-7-|-6-|-4-|-4-|--------------
D:-0-|-0-|-0-|-0-|--------------
A:-x-|-x-|-x-|-x-|--------------
E:-7-|-5-|-3-|-3-|--------------
	
interlude

   B     A       G     F#
e:-----|-------|-----|----------
B:-----|-------|-----|----------
G:-7-77|-6-6-67|-4-44|-2-24-22-- 
D:-0-00|-0-0-00|-0-00|-0-00-00-- x4
A:-x-xx|-x-x-xx|-x-xx|-x-xx-xx--
E:-7-77|-5-5-55|-3-33|-2-22-22--

On the forth time through, hit and hold the 2xo2 chord

Strum Hard chords

   B     A        G     F#
e:-----|--------|-----|---------
B:-----|--------|-----|---------
G:-7777|-6666-67|-4-44|-2-24-22-
D:-0000|-0000-00|-0-00|-0-00-00- x2
A:-xxxx|-xxxx-xx|-x-xx|-x-xx-xx-
E:-7777|-5555-55|-3-33|-2-22-22-

come in with the solo when you hit the F# the second time through

Solo

e:----------------------------------------------|
B:----------------------------------------------|
G:-2/7-6--2/7-7/9-9/11--2/7-7/9-9/6--2/4-4/14---|
D:----------------------------------------------|
A:----------------------------------------------|
E:----------------------------------------------|

e:----------------------------------------------|---|-----------|
B:------------------14-14-15-14----14-14-15-14--|---|-----------|
G:-2/7-7/9-9/11--14-------------14------------14|-7-|-7-6-4-2-0-|
D:----------------------------------------------|-0-|-0-0-x-x-0-|
A:----------------------------------------------|-x-|-x-x-0-0-0-|
E:----------------------------------------------|-7-|-7-5-3-2-0-|

bridge

 B  	  c#     D      D       B      A     G       	
e:----------------------------|------------------------10--|
B:----------------------------|----------------------8-----|
G:----7-7----7-7----7-7----7-7|----7-7----7-7----7-7-------|
D:-----0------0------0------0-|-----0------0----0----------| x2
A:--------4-4----5-5----5-5---|----------------x-----------|
E:-7-7------------------------|-7-7----5-5----3------------|

Second time through, hold this chord

   G
e:------------------------------
B:------------------------------
G:-7----------------------------
D:-x----------------------------
A:-0----------------------------
E:-3----------------------------

Chorus
   B   A   G   G
e:---|---|---|---|--------------
B:---|---|---|---|--------------
G:-7-|-6-|-4-|-4-|--------------
D:-0-|-0-|-0-|-0-|-------------- x2
A:-x-|-x-|-x-|-x-|--------------
E:-7-|-5-|-3-|-3-|--------------

i believe that is it...
            
Submit corrections

↑ Back to top | Tablatures and chords for acoustic guitar and electric guitar, ukulele, drums are parodies/interpretations of the original songs. You may use it for private study, scholarship, research or language learning purposes only