Home » G » Goo Goo Dolls »

Goo Goo Dolls - Iris Bass

Artists:  A B C D E F G H I J K L M N O P Q R S T U V W X Y Z # 

Iris Bass

(ver. 1) Click to play this song!
Goo Goo Dolls
[Intro] 4 Takte Pause
G|-----------|------------|------------|-----------|
D|-----------|------------|------------|-----------|
A|-----------|------------|------------|-----------|
E|-----------|------------|------------|-----------|

[Verse 1]
G|------------------------|------------------------|
D|-0--2-------------------|-0--2-------------------|
A|-------------2--0-------|-------------2--0-------|  x2
E|-------3--3--------3--3-|-------3--3--------3--3-|

[Chorus 1]
G|------------------------|------------------------|
D|------------------------|------------------------|
A|-2--22-0--00------------|-2--22-0--00------------|  x2
E|-------------3-33-3-33--|-------------3-33-3-33--|

[Bridge]
G|------------------------|------------------------|
D|------------------------|------------------------|
A|-2--22-0--00---2-2------|------------------------|  
E|------------------------|-3-3--2-2-320-----------|

G|------------------------|------------------------|
D|------------------------|------------------------|
A|-2--22-0--00---2-2------|------------------------|  
E|------------------------|-3-3--2-----------------|

[Verse 2]
G|------------------------|------------------------|
D|-0--2-------------------|-0--2-------------------|
A|-------------2--0-------|-------------2--0-------|  x2
E|-------3--3--------3--3-|-------3--3--------3--3-|

[Chorus 2]
G|------------------------|------------------------|
D|------------------------|------------------------|
A|-2--22-0--00------------|-2--22-0--00------------|  x2
E|-------------3-33-3-33--|-------------3-33-3-33--|

[Bridge]
G|-------------------------------------------------|
D|-------------------------------------------------|
A|-2-22224--44445--55555--5555---------------------|
E|-------------------------------------------------|

G|-------------------------------------------------|
D|-------------------------------------------------|
A|-2-22220--0000-----------------------------------|
E|---------------3--33333--3-3-3-3-----------------|

G|-------------------------------------------------|
D|-------------------------------------------------|
A|-2-22224--44445--55555--5555---------------------|
E|-------------------------------------------------|

G|-------------------------------------------------|
D|-------------------------------------------------|
A|-2-22220--0000-----------------------------------|
E|---------------3--33333--3-3-3-3-----------------|

[Pre-Solo]
G|-------------------------------------------------|
D|-------------------------------------------------|
A|-2-2-2-2--0-0-0-0--2-0---------------------------|  3x
E|-------------------------3-3--2-2-320------------|

G|-----------------------|
D|-----------------------|
A|-2-2-2-2--4-4-4-4--5-5-| 
E|-----------------------|

[Solo]
G|-------------------------------|
D|-------------------------------|
A|-------------------------------|  
E|--3--3-3--3-3-3---2--2-2--2-2-2|

G|-------------------------------|
D|-------------------------------|
A|-------------------------------|  
E|--3--3-3--3-3-3---5--5-5--5-5-5|

G|-------------------------------|
D|-------------------------------|
A|-------------------------------|  
E|--3--3-3--3-3-3---2--2-2--2-2-2|

G|-----------------------------------|
D|-----------------------------------|
A|-2--2-2--2-2-2---2--4--5--7--9-9-9-|  
E|-----------------------------------|

G|-------------------------------|
D|-------------------------------|
A|-------------------------------|  
E|--3--3-3--3-3-3---5--5-5--5-5-5|

G|-----------------------------------|
D|-----------------------------------|
A|-2--2-2--2-2-2---2-----------------|  
E|--------------------5--3--2--2--0--|

[Bridge]
G|-----------|------------|------------|-----------|
D|-----------|------------|------------|-----------|
A|-2---------|------------|------------|-----------|
E|-----------|------------|------------|-----------|

[Chorus 3]
G|------------------------|------------------------|
D|------------------------|------------------------|
A|-2--22-0--00------------|-2--22-0--00------------|  x2
E|-------------3-33-3-33--|-------------3-33-3-33--|

G|------------------------|
D|------------------------|
A|------------------------|  
E|-3-33-3-33--------------|

G|------------------------|------------------------|
D|------------------------|------------------------|
A|-2--22-0--00------------|-2--22-0--00------------|  x3
E|-------------3-33-3-33--|-------------3-33-3-33--|

G|------------------------|
D|------------------------|
A|-2--22-0--00------------|  
E|------------------------|

[Outro]
G|------------------------|------------------------|
D|------------------------|------------------------|
A|-2----4----5----5-------|--2----0----------------|  
E|------------------------|------------3----3------|

G|------------------------|------------------------|
D|------------------------|------------------------|
A|-2----4----5----5-------|--2----0----------------|  
E|------------------------|------------3-----------|
            
Submit corrections

↑ Back to top | Tablatures and chords for acoustic guitar and electric guitar, ukulele, drums are parodies/interpretations of the original songs. You may use it for private study, scholarship, research or language learning purposes only