» » »

Girlpool - Crowded Stranger Tabs

Artists:  A B C D E F G H I J K L M N O P Q R S T U V W X Y Z # 

Crowded Stranger Tabs

(ver. 2) Click to play this song!
Girlpool
 Rating:
3.2/5 (23 votes)

 Crowded Stranger  lessons Tabs too difficult? Try these video lessons and learn fast
 
                Tuning: Standard

Verses
e|---------------------------------------------------------------------------|
B|---------------------------------------------------------------------------|
G|---------------------------------------------------------------------------|
D|---------------------------------------------------------------------------|  x2
A|---------------5-x16-------------------------------------------------------|
E|---------------------5-x16-------------------------------------------------|

Chorus
e|---------------------------------------------------------------------------|
B|---------------------------------------------------------------------------|
G|-----777777777--66666666--2222222--12-12-12-12--11-11-11-11----------------| x2
D|---------------------------------------------------------------------------|
A|---------------------------------------------------------------------------|
E|---------------------------------------------------------------------------|

e|---------------------------------------------------------------------------|
B|---------------------------------------------------------------------------|
G|-----14-14-14-14-14-14-14-14b--12-12-12-12--11-11-11-11--7-----------------|
D|---------------------------------------------------------------------------|
A|---------------------------------------------------------------------------|
E|---------------------------------------------------------------------------|
            
Submit corrections


        Crowded Stranger  lessons Hard to play? Try these video lessons and learn fast Crowded Stranger  lessons
        
↑ Back to top | Tablatures and chords for acoustic guitar and electric guitar, ukulele, drums are parodies/interpretations of the original songs. You may use it for private study, scholarship, research or language learning purposes only