» » »

Girlpool - Cherry Picking Tabs

Artists:  A B C D E F G H I J K L M N O P Q R S T U V W X Y Z # 

Cherry Picking Tabs

(ver. 2) Click to play this song!
Girlpool
 Rating:
3.8/5 (22 votes)

 Cherry Picking  lessons Tabs too difficult? Try these video lessons and learn fast
 
                                                  Intro:
  (Same thing 4 times in a row but I wanted to lay the lyrics out with it)

    "I was cherry pickin', I was cherry pickin' dreams"
e|---------------------------------------------------------------------------|
B|---------------------------------------------------------------------------|
G|---------------------------------------------------------------------------|
D|---------------------------------------------------------------------------|
A|-7----------------------5h7---------------------------------------5--------|
E|---------------------------------------------------7------5h7--------------|

    "I was cherry pickin', did you ever think of me?"
e|---------------------------------------------------------------------------|
B|---------------------------------------------------------------------------|
G|---------------------------------------------------------------------------|
D|---------------------------------------------------------------------------|
A|-7---------------------5h7--------------------------------------5----------|
E|------------------------------------------------7------5h7-----------------|

   "You were hot and heavy, you were hesitant it seemed"
e|---------------------------------------------------------------------------|
B|---------------------------------------------------------------------------|
G|---------------------------------------------------------------------------|
D|---------------------------------------------------------------------------|
A|-7----------------------5h7----------------------------------------5-------|
E|---------------------------------------------- ---7-------5h7--------------|

   "When I'm cherry pickin', I always know you're gonna leave"
e|---------------------------------------------------------------------------|
B|---------------------------------------------------------------------------|
G|---------------------------------------------------------------------------|
D|---------------------------------------------------------------------------|
A|-7------------------------5h7-------------------------------------------5--|
E|--------------------------------------------------------7------5h7---------|


                                Main Riff:
e|-------------------------------------------------------------------|
B|---------------0---------------0-------------------------0-------0-|
G|-----------0---------------0-----------0---------------------------|x2
D|---5---5-----------5---5-------------------------------------------|
A|-7---7---7---7---7---7---7---7-----5-------5---5\7---7-------7-----|
E|---------------------------------7---7---7---7-----9---9---9---9---|
(for an alternative version of this riff she sometimes plays live go to the bottom of the page)

(Really she seems to kind of wing it on this main part so you can play it however, 
just stick to the same notes and experiment. It's different everytime she plays it.)

  "'Cause lovers turn to strangers,everyone always has to go"
e|---------------------------------------------------------------------------|
B|---------------0-------0---------------------------------------0-----------|
G|-----------0---------------------------0-------0-----------0-----------0---|
D|---5---5-----------5-------5---0-----------------------0-----------5-------|
A|-7---7---7---7---7---7---7---7-----5-------5-------5-------------7---7---7-|
E|---------------------------------7---7---7---7---7---7---7---7-------------|

  "Jane, she was a dancer, she danced in the afterglow"
e|---------------------------------------------------------------------------|
B|-----0-------------------------------------------0---0-----------0---------|
G|-0-------0---0---0---0-------0-------0-------0---------------0-------0-----|
D|---------------------------------------------------------5---------------5-|
A|---7---7---7---7---7-----5-------5-------5-------------7---7---7---7---7---|
E|-----------------------7---7---7---7---7---7---7---7-----------------------|

  "And when it all is over, when you are there and I am here"
e|---------------------------------------------------------------------------|
B|-------0-------0-------------------------------0-----------0---------------|
G|---0-------0-----------0-------0-------0---------------0-------0-----------|
D|---------------------------------------------------5---------------5---0---|
A|-7---7---7---7-----5-------5-------5-------5-----7---7---7---7---7---7-----|
E|-----------------7---7---7---7---7---7---7---7---------------------------7-|

  "I'll pretend that you care, that I have somehow dissappeared"
e|-------------------------------|
B|-------------------------------|
G|-----0-------0-------0-------0-|
D|-------------------------------|
A|-5-------5-------5-------5-----|
E|---7---7---7---7---7---7---7---|

                                Main Riff:
e|--------------------------------------------------------------------|
B|---------------0---------------0-------------------------0--------0-|
G|-----------0---------------0-----------0----------------------------|x2
D|---5---5-----------5---5--------------------------------------------|
A|-7---7---7---7---7---7---7---7-----5-------5---5\7---7-------7------|
E|---------------------------------7---7---7---7-----9---9---9---9----|


    "It'll make me feel better, knowing you watch me like the moon"
e|---------------------------------------------------------------------------|
B|---------------------------------------------------------------------------|
G|---------------------------------------------------------------------------|
D|---------------------------------------------------------------------------|
A|-7--------------------------5h7------------------------------------------5-|
E|-------------------------------------------------------------7----5h7------|

     "Truth is that I am working, for myself and only me"
e|---------------------------------------------------------------------------|
B|---------------------------------------------------------------------------|
G|---------------------------------------------------------------------------|
D|---------------------------------------------------------------------------|
A|-7-----------------------------5h7----------------------------------5------|
E|----------------------------------------------------7-----5h7--------------|


  "Yes I am picking cherries, I have a hard time staying clean"
e|--------------------------------------------------------------------------|
B|-----------0-------0-------0---0-------0-------0-------0-------0----0---0-|
G|--------------------------------------------------------------------------|
D|---5---5-------5-------5--------------------------------------------------|
A|-7---7---7---7---7---7---7---7-----5-------5-------5-------5------7---7---|
E|---------------------------------7---7---7---7---7---7---7---7------------|

  "Yes I am picking cherries, I have a hard time staying clean"
e|-------------------------------------------------------------------------|
B|---0---0---0---0---0---0-------0-------0-------0-------0---0---0---0---0-|
G|-------------------------------------------------------------------------|
D|-------------------------------------------------------------------------|
A|-7---7---7---7---7---7-----5-------5-------5-------5-----7---7---7---7---|
E|-------------------------7---7---7---7---7---7---7---7-------------------|

  "Yes I am picking cherries, I have a hard time staying clean"
e|-------------------------------------------------|
B|---0---0---0---0-------0-------0-------0-------0-|
G|-------------------------------------------------|
D|-------------------------------------------------|
A|-7---7---7---7-----5-------5-------5-------5-----|
E|-----------------7---7---7---7---7---7---7---7---|

                                Main Riff:
            (Same as before but only one time through then outro)
e|--------------------------------------------------------------------|
B|---------------0---------------0-------------------------0--------0-|
G|-----------0---------------0-----------0----------------------------|x1
D|---5---5-----------5---5--------------------------------------------|
A|-7---7---7---7---7---7---7---7-----5-------5---5\7---7-------7------|
E|---------------------------------7---7---7---7-----9---9---9---9----|

                                  Outro:
             (Same as main riff except for the last few notes)
e|--------------------------------------------------------------------------||
B|---------------0---------------0------------------------------------------||
G|-----------0---------------0-----------0----------------------------------||
D|---5---5-----------5---5---------------------------------9-------9--------||
A|-7---7---7---7---7---7---7---7-----5-------5---5\7---7-------7------7-----||
E|---------------------------------7---7---7---7-----9---9---9---9----------||
 (Also, playing live she often bends the last note and it sounds pretty cool)


______________________________________________________________________________
******************************************************************************
                     Main riff (ALTERNATIVE VERSION)
e|-------------------------------------------------------------------|
B|---------------0-----------------------------------------0---------|
G|-----------0---------------0-----------0---------------------------|
D|---5---5-----------5---5-------0---------------------------------0-|
A|-7---7---7---7---7---7---7---7-----5-------5---5\7---7-------7-----|
E|---------------------------------7---7---7---7-----9---9---9---9---|
(She just replaces a couple of the open Bs with open Ds but it changes the sound a lot, try it out!)            
Submit corrections


        Cherry Picking  lessons Hard to play? Try these video lessons and learn fast Cherry Picking  lessons
        
↑ Back to top | Tablatures and chords for acoustic guitar and electric guitar, ukulele, drums are parodies/interpretations of the original songs. You may use it for private study, scholarship, research or language learning purposes only