Home » G » Giant Drag »

Giant Drag - Wicked Game Tabs

Artists:  A B C D E F G H I J K L M N O P Q R S T U V W X Y Z # 

Wicked Game Tabs

(ver. 1) Click to play this song!
Giant Drag
(Intro)
|------------------------------------------2--0-----------------------------------|
|-----------------------5-3-2---------------3--3-2--------------------------------|
|-4-4-11-11-4---4-4-11--------4---2-1--------------4-4-4/2--2/1--1/2--2/3---------|
|--------------------------------4------------------------------------------------|
|---------------------------------------------------------------------------------|
|---------------------------------------------------------------------------------|

|--2--0---------------------------------------------------------------------------|
|----3--3-2-----------------------------------------------------------------------|
|------------4-4-4/2--2/1--1/2--2/3-----------------------------------------------|
|---------------------------------------------------------------------------------|
|---------------------------------------------------------------------------------|
|---------------------------------------------------------------------------------|
            
Submit corrections

↑ Back to top | Tablatures and chords for acoustic guitar and electric guitar, ukulele, drums are parodies/interpretations of the original songs. You may use it for private study, scholarship, research or language learning purposes only