Home » G » Giant Drag »

Giant Drag - Wicked Game Tabs

Artists:  A B C D E F G H I J K L M N O P Q R S T U V W X Y Z # 

Wicked Game Tabs

(ver. 3) Click to play this song!
Giant Drag
ok, so here's the intro solo, good song too

standard tuning by the way...
w/ distortion

|----------------|-----------------------|---------------------------|
|----------------|-----------------------|---------------------------|
|----------------|-----------------------|---------------------------|
|----------------|-----------------------|---------16---14---14-12-11|
|-2-2/9---9-9/2--|-2-2/9---7-5--5-4--4-2-|---4-2-----14---12---------|
|----------------|-----------------------|-2-------------------------|

|-------------|----------------------------|-----------|----------|
|-------------|----------------------------|-----------|----------|
|-------------|----------------------------|-----------|----------|
|-9-9-9-7-6---|--6-7-9--16---14---14-12-11-|-9-9-9-7/6-|-6-7-9----|
|-------------|-----------14---12----------|-----------|----------|
|-------------|----------------------------|-----------|----------|

AND NOW! the singing begins....ok between each of the chords, the guitar plays different 
up notes each time, but we wont worry about them, but if u want to its just one of the 
on the last chord you played or the next chord you're gonna play.

                               ______x2______x3
|---------------|-------------|--------------||-------------|--------------|
|---------------|-------------|--------------||-------------|--------------|
|-4-4-xx-4-4-xx-|-------------|-------------O||-44-xx-44-xx-|--------------|
|-4-4-xx-4-4-xx-|-77-xx-77-xx-|-22-xx-22-xx-O||-44-xx-44-xx-|-77-xx-77-xx--|
|-2-2-xx-2-2-xx-|-77-xx-77-xx-|-22-xx-22-xx--||-22-xx-22-xx-|-77-xx-77-xx--|
|---------------|-55-xx-55-xx-|--------------||-------------|-55-xx-55-xx--|

|------|----------|----------|----------|-----------||--------------------|
|------|----------|----------|----------|-----------||--------------------|
|------|-44444444-|----------|----------|----------O||--------------------|
|-2~---|-44444444-|-77777777-|-22222222-|-22222222-O||-16---14---14-12-11-|
|-2~---|-22222222-|-77777777-|-22222222-|-22222222--||---14---12----------|
|------|----------|-55555555-|----------|-----------||--------------------|
                                                                     x3
|-----------|-------------|-------------|-------------|--------------||
|-----------|-------------|-------------|-------------|--------------||
|-----------|-44-xx-44-xx-|-------------|-------------|-------------O||
|-9-9-9-7-6-|-44-xx-44-xx-|-77-xx-77-xx-|-22-xx-22-xx-|-22-xx-22-xx-O||
|-----------|-22-xx-22-xx-|-77-xx-77-xx-|-22-xx-22-xx-|-22-xx-22-xx--||
|-----------|-------------|-55-xx-55-xx-|-------------|--------------||

|----------|----------|----------|----------|
|----------|----------|----------|----------|
|-44444444-|----------|----------|----------|
|-44444444-|-77777777-|-22222222-|-22222222-|
|-22222222-|-77777777-|-22222222-|-22222222-|
|----------|-55555555-|----------|----------|

so just play that over a few times, most of the ending is just the chorus strumming. 
the chorus, just go right back to the verse, you only play the solo fill the first time.

questions, comments? (i know i suck at tabbing)
            
Submit corrections

↑ Back to top | Tablatures and chords for acoustic guitar and electric guitar, ukulele, drums are parodies/interpretations of the original songs. You may use it for private study, scholarship, research or language learning purposes only