Home » G » Get Set Go »

Get Set Go - It Must Be Love Tabs

Artists:  A B C D E F G H I J K L M N O P Q R S T U V W X Y Z # 

It Must Be Love Tabs

(ver. 2) Click to play this song!
Get Set Go
(Intro)
-------------------------------------------------------------------------------
                             IT MUST BE LOVE - Get Set Go
-------------------------------------------------------------------------------

Tuning:Standard

e|---------------------------------------------------------------------------|
B|---------------------------------------------------------------------------|
G|----14--14-16-14~----14--14--18--16--14--16--------------------------------|
D|--14--14-----------14--14--------------------------------------------------|
A|---------------------------------------------------------------------------|
E|---------------------------------------------------------------------------|

e|---------------------------------------------------------------------------|
B|---------------------------------------------------------------------------|
G|----14--14-16-14~----14--14--18--16--14--16--14----------------------------|
D|--14--14-----------14--14--------------------------------------------------|
A|---------------------------------------------------------------------------|
E|---------------------------------------------------------------------------|

===============================================================================
            
Submit corrections

↑ Back to top | Tablatures and chords for acoustic guitar and electric guitar, ukulele, drums are parodies/interpretations of the original songs. You may use it for private study, scholarship, research or language learning purposes only