» » »

Get Set Go - It Must Be Love Tabs

Artists:  A B C D E F G H I J K L M N O P Q R S T U V W X Y Z # 

It Must Be Love Tabs

(ver. 1) Click to play this song!
Get Set Go
 Rating:
4/5 (4 votes)

 It Must Be Love lessons Tabs too difficult? Try these video lessons and learn fast
 
                -------------------------------------------------------------------------------
-------------------------------------------------------------------------------

Tuning: Standard

Intro:
e|---------------------------------------------------------------------------|
B|---------------------------------------------------------------------------|
G|----14--14-16-14~----14--14--18--16--14--16--------------------------------|
D|--14--14-----------14--14--------------------------------------------------|
A|---------------------------------------------------------------------------|
E|---------------------------------------------------------------------------|

e|---------------------------------------------------------------------------|
B|---------------------------------------------------------------------------|
G|----14--14-16-14~----14--14--18--16--14--16--14----------------------------|
D|--14--14-----------14--14--------------------------------------------------|
A|---------------------------------------------------------------------------|
E|---------------------------------------------------------------------------|


Verses: 
e|---------------------------------------------------------------------------|
B|---------------------------------------------------------------------------|
G|---------------------------------------------------------------------------|
D|---------6-6-6-6-7-7-7-7-9-9-9-9-------------------------------------------|
A|-7-7-7-7-4-4-4-4-5-5-5-5-7-7-7-7-------------------------------------------|
E|-5-5-5-5-------------------------------------------------------------------|
4 times


Chorus:
e|---------------------------------------------------------------------------|
B|---------------------------------------------------------------------------|
G|---------------------------------------------------------------------------|
D|---------6-6-6-6---------7-7-7-7-------------------------------------------|
A|-7-7-7-7-4-4-4-4-4-4-4-4-5-5-5-5-------------------------------------------|
E|-5-5-5-5---------2-2-2-2---------------------------------------------------|
9 times

Solo:
e|---------------------------------------------------------------------------|
B|---------------------------------------------------------------------------|
G|----14--14-16-14~----14--14--18--16--14--16--------------------------------|
D|--14--14-----------14--14--------------------------------------------------|
A|---------------------------------------------------------------------------|
E|---------------------------------------------------------------------------|

e|---------------------------------------------------------------------------|
B|---------------------------------------------------------------------------|
G|----14--14-16-14~----14--14--18--16--14--16--14----------------------------|
D|--14--14-----------14--14--------------------------------------------------|
A|---------------------------------------------------------------------------|
E|---------------------------------------------------------------------------|

Bridge:
e|---------------------------------------------------------------------------|
B|---------------------------------------------------------------------------|
G|---------------------------------------------------------------------------|
D|-6-7-8-10-12---------------------------------------------------------------|
A|-4-5-7-8--10---------------------------------------------------------------|
E|---------------------------------------------------------------------------|

Order:

Intro
Verse
Chorus
Solo
Verse
Chorus
Bridge
Chorus and solo as a second guitar

| /  slide up
| \  slide down
| h  hammer-on
| p  pull-off
| ~  vibrato
| +  harmonic
| x  Mute note
===============================================================================
            
Submit corrections


        It Must Be Love lessons Hard to play? Try these video lessons and learn fast It Must Be Love lessons
        
↑ Back to top | Tablatures and chords for acoustic guitar and electric guitar, ukulele, drums are parodies/interpretations of the original songs. You may use it for private study, scholarship, research or language learning purposes only