Home » G » Georgia Satellites »

Georgia Satellites - Keep Your Hands To Yourself Bass

Artists:  A B C D E F G H I J K L M N O P Q R S T U V W X Y Z # 

Keep Your Hands To Yourself Bass

(ver. 2) Click to play this song!
Georgia Satellites
 Rating:
3.8/5 (5 votes)
                This is my own little blues bass line for this song.


Tuning: EADG

Time signature: 4/4

r = rest (listen for duration)
||= measure gets repeated (see number of times above measure, e.g. 4x)


*My tabs are meant to be read in conjunction with listening to the song.
In other words, there are no specific notations to account for note/rest duration. 
However, you will find that I've made an attempt to strategically space the notes 
and rests within their respective measures in order to represent the appropriate 
durations.


 INTRO 

   7x
G||--------------------------------|--------------------------------||
D||--------------------------------|--------------------------------||
A||--------------------------------|--------------------------------||
E||r-------------------------------|--------------------------------||



|--------------------------------|--------------------------------|
|--------------------------------|--------------------------------|
|--------------------------------|--------------------------------|
|5---r---------------------------|--------------------0---3---4---|


  2x
||--------------------------------|--------------------------------||
||------------------------5---7---|--------7---7---5---------------||
||----------------5---7-----------|--------------------7---5-------||
||5---5---5---8-------------------|5---5-----------------------8---||


                 
VERSE

|--------------------------------|--------------------------------|
|--------------------------------|------------------------5---7---|
|--------------------------------|----------------5---7-----------|
|5---5---5---5---5---0---3---4---|5---5---5---8-------------------|



|--------------------------------|--------------------------------|
|--------------------------------|--------------------------------|
|--------------------------------|------------------------4---4---|
|5---5---5---5---5---0---3---4---|5---5---7---7---8---8-----------|



|--------------------------------|--------------------------------|
|--------------------------------|-------7---7---5----------------|
|5---5---5---5---5---0---4---5---|5---5---------------7---5-------|
|--------------------------------|----------------------------8---|



|--------------------------------|--------------------------------|
|--------------------------------|--------------------------------|
|--------------------------------|----------------------------5---|
|5---5---5---5---5---0---3---4---|5---5---5---5---5---5---8-------|



|-------------------------7---9---|--------9---9---7----------------|
|-----------------7---9-----------|--------------------9---7--------|
|7---7---7---10-------------------|7---7-----------------------10---|
|---------------------------------|---------------------------------|



|--------------------------------|--------------------------------|
|--------------------------------|--------------------------------|
|r-------------------------------|--------------------------------|
|--------------------------------|--------------------0---3---4---|



SOLO

  2x
||--------------------------------|--------------------------------|
||--------------------------------|------------------------5---7---|
||--------------------------------|----------------5---7-----------|
||5---5---5---5---5---0---3---4---|5---5---5---8-------------------|



|--------------------------------|--------------------------------|
|--------------------------------|--------------------------------|
|--------------------------------|------------------------4---4---|
|5---5---5---5---5---0---3---4---|5---5---7---7---8---8-----------|



|--------------------------------|--------------------------------|
|--------------------------------|-------7---7---5----------------|
|5---5---5---5---5---0---4---5---|5---5---------------7---5-------|
|--------------------------------|----------------------------8---|



|--------------------------------|--------------------------------|
|--------------------------------|--------------------------------|
|--------------------------------|----------------------------5---|
|5---5---5---5---5---0---3---4---|5---5---5---5---5---5---8-------|



|--------9---9---7----------------|---------------------------------|
|--------------------9---7--------|--------7---7---5----------------|
|7---7-----------------------10---|5---5---------------7---5--------|
|---------------------------------|----------------------------8----|



|--------------------------------|--------------------------------||
|--------------------------------|--------------------------------||
|--------4---4---5---5---6---6---|5---5---5---5---5---5---5---5---||
|5---5---------------------------|--------------------------------||



[VERSE]



[SOLO]  to fade



              (PLEASE RATE THIS TAB / LEAVE COMMENT)                   
            
Submit corrections

↑ Back to top | Tablatures and chords for acoustic guitar and electric guitar, ukulele, drums are parodies/interpretations of the original songs. You may use it for private study, scholarship, research or language learning purposes only