» » »

Georgia Satellites - Keep Your Hands To Yourself Tabs

Artists:  A B C D E F G H I J K L M N O P Q R S T U V W X Y Z # 

Keep Your Hands To Yourself Tabs

(ver. 2) Click to play this song!
Georgia Satellites
 Rating:
4/5 (4 votes)

 Keep Your Hands To Yourself lessons Tabs too difficult? Try these video lessons and learn fast
 
                Gtr I (E A D G B E) - 'Dan Baird - Electric Guitar'
Gtr II (E A D G B E) - 'Rick Richards - Electric Guitar'


 Intro
  Q=118
  A
 4/4
  Gtr I
  PM----------------------------------------|
  E E E E E E E E   E E E E E E E E   E E E E E E E E   E E E E E E E E
|-----------------|-----------------|-----------------|-----------------||
|-----------------|-----------------|-----------------|-----------------||
|-----------------|-----------------|---------2-2-----|-----------------||
|-2-2-4---2---4---|-2-2-4---2-2-4-2-|-2-2-4---2-2-4---|-2-2-4-2-2-2-4-2-||
|-0-0-0-0-0-0-0-0-|-0-0-0-0-0-0-0-0-|-0-0-0-0-0-0-0-0-|-0-0-0-0-0-0-0-0-||
|-----------------|-----------------|-----------------|-----------------||


 1st Verse
  A
  E E E E E E E E   E E E E E E E E   E E E E E E E E   E E E E E E E E
|-----------------|-----------------|-----------------|------------------|
|-----------------|-----------------|-----------------|------------------|
|-----------------|-----------------|---------2-2-----|---------------0--|
|-2-2-4---2---4---|-2-2-4---2-2-4-2-|-2-2-4---2-2-4---|-2-2-4---2-2-4-0--|
|-0-0-0-0-0-0-0-0-|-0-0-0-0-0-0-0-0-|-0-0-0-0-0-0-0-0-|-0-0-0-0-0-0-0----|
|-----------------|-----------------|-----------------|------------------|


  D                                   A
  E E E E E E E E   E E E E E E E E   E E E E E E E E   E E E E E E E E
|-----------------|-----------------|-----------------|------------------|
|-----------------|-----------------|-----------------|------------------|
|-2-2-4---2-2-4---|-2-2-4-2-2-2-4-0-|---------2-------|-2-------2-2---0--|
|-0-0-0-0-0-0-0-0-|-0-0-0-0-0-0-0-0-|-2-2-4---2-2-4---|-2-2-4---2-2-4-0--|
|-----------------|-----------------|-0-0-0-0-0-0-0-0-|-0-0-0-0-0-0-0----|
|-----------------|-----------------|-----------------|------------------|


  E                                    A
  Gtr II
  W                 W                  E E Q  H      H    E E E E
|-----------------|------------------|-------------|--------5-5-5--||
|-----------------|------------------|-------------|--------5-5-5--||
|-----------------|------------------|-2-----------|---------------||
|-----------------|------------------|-2-----------|---------------||
|-----------------|------------------|-0-----------|---------------||
|-----------------|------------------|-------------|---------------||
|
| Gtr I
| E E E E E E E E   E E E E E E Q      E E Q  H      H    E E E E
|-----------------|------------------|-------------|---------------||
|-----------------|------------------|-------------|---------------||
|-----------------|------------------|-2-----------|------------2--||
|-----------------|------------------|-2-----------|------------2--||
|-2-2-4---2-2-4---|-2-2-4-2-2-2------|-0-----------|--------3-4-0--||
|-0-0-0-0-0-0-0-0-|-0-0-0-0-0-0-3b4--|-------------|---------------||


 Interlude
  A
  Q  E E E E E E   +Q    E E E E E   E
|-5--------5-8-5-|-(5)---------5-5---5-|
|-5--7-5-5-5-7-5-|-(5)---7-5---5-5---5-|
|----7-5-6-------|-------7-5-----7b9---|
|----------------|-----------7---------|
|----------------|---------------------|
|----------------|---------------------|
|
| Q  E E E E E E   +E  E E E E E E   E
|----------------|---------------------|
|----------------|---------------------|
|--------2-2---2-|-(2)---7-5---------2-|
|-2------2-2-4-2-|-(2)-2-7-5-7-------2-|
|-0--3s4-0-0-0-0-|-(0)-0-------3-4---0-|
|----------------|---------------------|


  +E  E   +E  E E   +E  E E   E   +E  E    E  E S S E E
|-(5)-7b8r(7)-5-7b8r(7)-5---|--------------5--5---5-5-5-||
|-(5)-7b8r(7)-5-7b8r(7)-5-5-|-7b8r(7)-5----5--5-7-5-5-5-||
|---------------------------|-7b8r(7)-5---------7-------||
|---------------------------|---------------------------||
|---------------------------|---------------------------||
|---------------------------|---------------------------||
|
|  E  E    E  E E    E  E E   E    E  E   +E  E E   E E
|---------------------------|---------------------------||
|---------------------------|---------------------------||
|--2-------4--4-----------2-|------4--4b5r(4)-2-------2-||
|--2-------5--4-----------2-|------4--4b5r(4)-2-------2-||
|--0--0---------2----3--4-0-|-------------------3---4-0-||
|---------------------------|---------------------------||


 2nd Verse
  A
  +W                 W                W                 W
|-(5)--------------|----------------|----------------|--------------------|
|-(5)--------------|----------------|----------------|--------------------|
|------------------|----------------|----------------|--------------------|
|------------------|----------------|----------------|--------------------|
|------------------|----------------|----------------|--------------------|
|------------------|----------------|----------------|--------------------|
|
|  Q   E E E E E E   Q  E E E E E E   Q  E E E E E E   +E  E E E E E E E
|------------------|----------------|----------------|--------------------|
|------------------|----------------|----------------|--------------------|
|--2---------------|-2--------------|--------------2-|-(2)-----2----------|
|--2---4---2-2-4-2-|-2--4---2-2-4-2-|-2--4---2-2-4-2-|-(2)-2-4-2----------|
|--0---0-0-0-0-0-0-|-0--0-0-0-0-0-0-|-0--0-0-0-0-0-0-|-(0)-0-0-0-0-2-3-4--|
|------------------|----------------|----------------|--------------------|


  D
  Gtr I
  Q  E E E E E E   E E E E E E Q
|----------------|------------------|
|----------------|------------------|
|-2--2---2---4---|-2-2-4---2-2------|
|-0--3h4-0-0-0-0-|-0-0-0-0-0-0------|
|----------------|-------------3b4--|
|----------------|------------------|


  A
  E E E E E E E E   +E  E E E E E S   +S  S   +S
|-----------------|--------------------------------|
|-----------------|--------------------------------|
|---------------2-|-(2)-------2-2------------------|
|-2-2-4---2---4-2-|-(2)-2-4-2-2-2------------------|
|-0-0-0-0-0-0-0-0-|-(0)-0-0-0-0-0------------------|
|-----------------|---------------3b4r(3)-3b4r(3)--|


  E                                    A
  Gtr II
  W                 W                  W             H    E E      E E
|-----------------|------------------|-------------|--------8------8-8--||
|-----------------|------------------|-------------|--------7b7.5==7-7--||
|-----------------|------------------|-------------|--------------------||
|-----------------|------------------|-------------|--------------------||
|-----------------|------------------|-------------|--------------------||
|-----------------|------------------|-------------|--------------------||
|
| Gtr I
| E E E E E E E E   E E E E E E Q      E E Q  H      H    E E      E E
|-----------------|------------------|-------------|--------------------||
|-----------------|------------------|-------------|--------------------||
|-----------------|------------------|-2-----------|-----------------2--||
|-----------------|------------------|-2-----------|--------4------4-2--||
|-2-2-----2-2-4-2-|-2-2-4-2-2-2------|-0-----------|--------0------0----||
|-0-0-3-4-0-0-0-0-|-0-0-0-0-0-0-3b4--|-------------|--------------------||


 Guitar Solo
  A
  E +E  Q   E E  E E   +E  E E E S S E E   E
|-8-(8)-8---8-8--5-5-|-(5)-5---------5-----5-|
|-7-(7)-7---7-7r-5-5-|-(5)-5-7-5-----5-5---5-|
|--------------------|-------7-5-5h7---7b9---|
|--------------------|-----------------------|
|--------------------|-----------------------|
|--------------------|-----------------------|
|
| Q     E E E E  E E   +E  E E E S S E E   E
|--------------------|-----------------------|
|--------------------|-----------------------|
|------------------2-|-(2)-------5h7-2-------|
|-2-----4---2-2--4-2-|-(2)-------5h7-2-4---2-|
|-0-----0---0-0--0-0-|-(0)-0-3s4-----------0-|
|--------------------|-----------------------|


           ~~~~~
                                                  |--3---|
  E Q      Q      +Q    E     E    +S  S S S E   +S  +S  S E E E
|-5-----------------------|----------------------------------------|
|-5-8b10---8b10r==(8)---5-|---8b10r(8)-5---5-----------------------|
|-------------------------|--------------7---7b9r(7)-(7)-5---5-7---|
|-------------------------|--------------------------------7-------|
|-------------------------|----------------------------------------|
|-------------------------|----------------------------------------|
|
| E E    E E    E  E  E E   a E     E    E   E    E        E E E
|-------------------------|----------------------------------------|
|-------------------------|----------------------------------------|
|---------------2---------|-4s5-----4----2-----------------2-------|
|-2-2----4------2--2----2-|-4s5-----4----2-----------------2---0---|
|-0-0----0-0----0--0----0-|------------------3----4----------4-----|
|---------------------3---|----------------------------------------|


  D
  a  E  E  E  E    +E   E  E  E    E  E  E  E  +E   E E E
|------10----10---(10)-10-------|----10----10-(10)-10-----|
|------10-12-10---(10)-10-12----|----10-12-10-(10)-10-0---|
|-9s11----12--------------12-10h|=11----12------------0-5h|
|-------------------------------|-------------------------|
|-------------------------------|-------------------------|
|-------------------------------|-------------------------|
|
|    E  E  E  S S   E   E  E  E    E  E  E  E   E   E E E
|-------------------------------|-------------------------|
|-------------------------------|-------------------------|
|----2--2-----2-2---2---2--4--2-|--5--5--4--4---2---2-2---|
|----0--0--3--0-0---0---0--0--0-|--0--0--0--0---0---3-4---|
|-------------------------------|-----------------------3h|
|-------------------------------|-------------------------|


  A
  E E E E E E E E   E E E E E E   E   S   S
|---5-----5-----5-|-----5-5-5-----5-------5-|
|---5-----5-----5-|-----5-5-5-5---5---5---5-|
|-6---5-6---5-6---|-5-6-------7b9-----7b9---|
|-----------------|-------------------------|
|-----------------|-------------------------|
|-----------------|-------------------------|
|
| E E E E E E E E   E E E E E E   Q
|-----------------|-------------------------|
|-----------------|-------------------------|
|---2-----2-----2-|-----2-----2-------------|
|-----------------|-------------------------|
|-4---3-4---3-4---|-3-4---3-4---------------|
|-----------------|---------------3b4-------|


  E
                    ~~~
  E E    +S   E.    Q     E E   E   E E E    +E  E E   +S  S
|-5---------------------------|-----5-5----------------------|
|-5-5----(5)------------------|-------5-8b10r(8)-5-----------|
|---7b9==(7)r-7b9---7b9---7-5-|-7b9----------------7b9r(7)-5-|
|-----------------------------|------------------------------|
|-----------------------------|------------------------------|
|-----------------------------|------------------------------|
|
| Q       E       E E   E E E   E   E E E     E  E E    E
|-----------------------------|------------------------------|
|-----------------------------|------------------------------|
|-----------------------------|-2---2------------------------|
|-------------------2---2-----|-0---0-------------------2----|
|-------------------2---2-4-0-|-------4-0-----3--0-3----0----|
|-0-------3-------4-----------|------------------------------|


  A                            E               A
  E E a E E a E    E a E E   E Q   S S E E E   E
|------------------------5-|-8-8---8-8-8-8-8-----||
|------------------------5-|-7-7---7-7-7-7-7---8-||
|--------------------------|-------------------9-||
|-7-7-6s7-7-6s7----7-6s7---|---------------------||
|--------------------------|---------------------||
|--------------------------|---------------------||
|
| E E   E E   T S. E   E E   E E E E   E E S S E
|--------------------------|---------------------||
|--------------------------|---------------------||
|-------2-2------------4-2-|-2-9-9-9---9-9-4s5-2-||
|-2-2---2-2---6s7--2---4-2-|-2-9-9-9---9-9-4s5-2-||
|-0-0---3-4------------0-0-|-0-7-7-7---7-7-----0-||
|--------------------------|---------------------||


  A
  E  E  E E E  E  E E    E   E  E E E  E  E E
|---------------------|-----------------------|
|-8s10-10s8-8s10-10s8-|--8s=10-10s8-8s10-10s8-|
|-9s11-11s9-9s11-11s9-|--9s=11-11s9-9s11-11s9-|
|---------------------|-----------------------|
|---------------------|-----------------------|
|---------------------|-----------------------|
|
| Q     E E E  E  E E   +Q      E E E  E  E E
|---------------------|-----------------------|
|-2-----2---2-------2-|-(2)-----3-x-2-------2-|
|-2-----2---2h=4--4-2-|-(2)-----2-x-2-------2-|
|-2-----2---2h=4--4-2-|-(2)-----2-x-2--0--0-2-|
|-0-----0-0-0-----0-0-|-(0)-----0---0-------0-|
|---------------------|-----------------------|


   E   E  E  E  E  E  E E   E E   E E E   S S E     E
|-------------------------|-------5-5-----------------|
|--8s=10-10s12-12s10-10s0-|-x-5---5-5-5---8-7-7b7.5---|
|--9s=11-11s12-12s11-11s0-|-x-7b9-----7b9-8-7-5b5.5---|
|-------------------------|---------------------------|
|-------------------------|-------------------------0-|
|-------------------------|---------------------------|
|
| +Q      E  E  E  E  E E   E E   E E Q       Q
|-------------------------|---------5-----------------|
|-(2)-----------8---------|-5-5---7-5-5---------------|
|-(2)-----7-----9-----7---|-6-6---7---6---------------|
|-(2)-----7-----------7p5-|-7-7---7---7---------------|
|-(0)-----0---------------|-------------------3b4-----|
|-------------------------|---------------------------|


  D
               ~~~~~                       ~~~~~~~~~~~~
  E  Q.        Q       E  E    E  E    E   E      +Q      E E
|---------------------------|----10---------------------------|
|---13b15-----13b15---13----|-13------10--13b15==(13)r---13---|
|------------------------12-|----------------------------11s5-|
|---------------------------|---------------------------------|
|---------------------------|---------------------------------|
|---------------------------|---------------------------------|
|
| Q       E E  E    E  E  E    E  E   +E   E      +E   E  E E
|---------------------------|---------------------------------|
|---------------------------|---------------------------------|
|-2-------2-2--2----2--4--4-|-----4b5r(4)--4b5====(4)r----5---|
|-0-------3-4--0----0--0--0-|--0--0---(0)--0------(0)--0--0---|
|---------------------------|-------------------------------3-|
|---------------------------|---------------------------------|


  A
  E E E E E E E E   E E E E E E E   E
|---5-----5-----5-|-----5-5---8-8---8--|
|---5-----5-----5-|-----5-5---7-7---7--|
|-6---5-6---5-6---|-5-6-----0----------|
|-----------------|--------------------|
|-----------------|--------------------|
|-----------------|--------------------|
|
| E E E E E E E E   E E E E E E Q
|-----------------|--------------------|
|-----------------|--------------------|
|---2-----2-----2-|-----2-----2--------|
|-----------------|--------------------|
|-4---3-4---3-4---|-3-4---3-4----------|
|-----------------|-------------3b4----|


  E
  Q  Q   E E E E   E   +E  E E   +E  E E   E
|-8--8---8-8-8-5-|-7b8r(7)-5---------------5-|
|-7--7---7-7-7-5-|-7b8r(7)-5-7b8r(7)-------5-|
|----------------|-----------7b8r(7)-5-7b9---|
|----------------|---------------------------|
|----------------|---------------------------|
|----------------|---------------------------|
|
| Q  E E E E E E   E    E  E E    E  E E   E
|----------------|---------------------------|
|----------------|---------------------------|
|----------------|-2----2--------------------|
|--------2-2---0-|-0----0--------------------|
|--------2-2-4---|---------4-0----3--0-2---0-|
|-0--3-4-0-0-----|---------------------------|


  A                               E
           ~~~~                                ~
  E Q      Q.       S    +S   E   S    +S  E E E Q     Q
|-5--------------------------10-|---------------------------||
|-5-8b10---8b10-----8b10r(8)----|-8b10r(8)-5-5--------------||
|-------------------------------|--------------5-5b6--------||
|-------------------------------|---------------------------||
|-------------------------------|---------------------------||
|-------------------------------|---------------------------||
|
| E E    E E    E E E         E   E        E E E E   E E E
|-------------------------------|---------------------------||
|-------------------------------|---------------------------||
|---------------2---------------|---------------------------||
|-2-2-----------2---4---------2-|-9--------9-9-9-9---9-9-2--||
|-0-0----3-4----0-0-0---------0-|-7--------7-7-7-7---7-7-0--||
|-------------------------------|-0--------0-0-0-0---0-0----||


 3rd Verse
  A
  E E Q   E E E E    E  E Q   E E E E
|---5-----5-5-5---|-----5-----5-5-5---|
|---5-----5-5-5---|-----5-----5-5-5---|
|-----------------|-------------------|
|-----------------|-------------------|
|-----------------|-------------------|
|-----------------|-------------------|
|
| E E E E E E E E   +E  E E E E E E E
|-----------------|-------------------|
|-----------------|-------------------|
|---------------2-|-(2)---------------|
|-2-2-4---2-2-4-2-|-(2)-2-4---2-2-4-2-|
|-0-0-0-0-0-0-0-0-|-(0)-0-0-0-0-0-0-0-|
|-----------------|-------------------|


   E  E Q   E E E E    E  E Q   E E   E E
|-----5-----5-5-5---|-----5-----5-5---5----|
|-----5-----5-5-5---|-----5-----5-5---5----|
|-------------------|----------------------|
|-------------------|----------------------|
|-------------------|----------------------|
|-------------------|----------------------|
|
| +E  E E E E E E E   +E  E E E E Q.
|-------------------|----------------------|
|-------------------|----------------------|
|-----------------2-|-(2)------------------|
|-(2)-2-4---2-2-4-2-|-(2)-------2----------|
|-(0)-0-0-0-0-0-0-0-|-(0)-0-3-4-0-3b4------|
|-------------------|----------------------|


  D
  E  E Q    E  E E  E   E  E Q    E  E  E E
|---10-----10-10------|---10-----10-10-10---|
|---10-----10-10------|---10-----10-10-10---|
|------------------10-|---------------------|
|---------------------|---------------------|
|---------------------|---------------------|
|---------------------|---------------------|
|
| Q    E E  E  E E  E   E  E E E  E  E  E E
|---------------------|---------------------|
|---------------------|---------------------|
|-2----4----2----4----|----2-4-2-----2--4---|
|-0----0----0--0-0--0-|-0--0-0-0--0--0--0-0-|
|---------------------|---------------------|
|---------------------|---------------------|


  A
  E E Q   E E E E       E E Q   E   E E E
|---5-----5-5---------|---5-----5---5-5----|
|---5-----5-5-5-------|---5-----5---5-5----|
|---------------5b5.5-|---------7b9--------|
|---------------------|-7------------------|
|---------------------|--------------------|
|---------------------|--------------------|
|
| E E E E E E E E       E E E E E   E E E
|---------------------|--------------------|
|---------------------|--------------------|
|---------------------|--------------------|
|-2-2-4---2-2-4-------|-2-2-4---2---2-4----|
|-0-0-0-0-0-0-0-0-----|-0-0-0-0-0---0-0-0--|
|---------------------|--------------------|


  E                                              A
  E  E  Q    E  E  E E   E  E Q    E  E  E   E   E E Q  H      H    E a E E E
|---12------12-12-12---|---12-----12-12-12---5-|-5-----------|--------4s5-5-5-||
|---12------12-12-12---|---12-----12-12-12---5-|-5-----------|--------4s5-5-5-||
|------13--------------|-----------------------|-------------|----------------||
|----------------------|-----------------------|-------------|----------------||
|----------------------|-----------------------|-------------|----------------||
|----------------------|-----------------------|-------------|----------------||
|
| E  E  E E  E  E  E E   E  E E E  E  E  Q       E E Q  H      H    E a E E E
|----------------------|-----------------------|-------------|----------------||
|----------------------|-----------------------|-------------|----------------||
|----------------------|-----------------------|-2-----------|----------------||
|----------------------|-----------------------|-2-----------|--------4s5-4-2-||
|-2--2--4----2--2--4---|-2--2-4-2--2--2--------|-0-----------|------------0-0-||
|-0--0--0-0--0--0--0-0-|-0--0-0-0--0--0--3b4---|-------------|----------------||


 Outro-Solo
  A
  Q  E E E E E E   E   E E E  E   E E   E
|-5------5---7-5-|-7b8-8-7-5------5-5---5-|
|-5--7---5---7-5-|-7b8-8-7-5--5---5-5---5-|
|----7-----------|------------7b9---------|
|----------------|------------------------|
|----------------|------------------------|
|----------------|------------------------|
|
| Q  E E E E E E   E   E E E +E   E Q
|----------------|------------------------|
|----------------|------------------------|
|--------2-------|-4b5-4-2-2-(2)----------|
|-2------2-2-4-2-|-4b5-4-2-2-(2)----------|
|-0--3-4-0-0-0-0-|-------0-0-(0)----------|
|----------------|----------------0-3b4---|


  E E E E   E E E E     +E   E Q       E E   E   E
|-8-7-5-----5-5-5-----|------5---------5-----5---5--|
|-8-7-5-5---5-5-5-7b8r|=(7)--5-7b8-----5-5---5---5--|
|-------7b9-------7b9r|=(7)----7b9-------7b9--------|
|---------------------|-----------------------------|
|---------------------|-----------------------------|
|---------------------|-----------------------------|
|
| E E E E   E E E E      Q     E   Q     E   Q
|---------------------|-----------------------------|
|---------------------|-----------------------------|
|-----------2---4-2---|--4b5---2---4b5---2---4b5----|
|-2-x---------2-4-2---|--4b5---2---4b5---2---4b5----|
|-0-x-3-4-------------|-----------------------------|
|---------------------|-----------------------------|


  D
   a  E  E  E  E  E     E  E  E    E     E    E    E    E        E  E  E
|-------10-12-10-12b13-13-12-10-|-12b13-13---13---13---13-------12-10\---|
|-------10-12-10-12b13-13-12-10-|-12b13-13---13---13---13-------12-10\---|
|-10s11-------------------------|--------------------------------------5-|
|-------------------------------|----------------------------------------|
|-------------------------------|----------------------------------------|
|-------------------------------|----------------------------------------|
|
|     E  E  E  E  Q        E  E    E     E    E    E    S   +S   E  E  E
|-------------------------------|----------------------------------------|
|-------------------------------|----------------------------------------|
|-----2--2--------2--------4--2-|--4b5---4b5--4b5--4b6--4b6r(4)--4--0----|
|-----0--0--3--4--0--------0--0-|--0-----0----0----0----0--------0--0----|
|-------------------------------|--------------------------------------3-|
|-------------------------------|----------------------------------------|


  A
  E E E E E E E E   E E E E E E E   E
|---5-----5-----5-|-----5-----5---------|
|-----------------|---------------------|
|-6---5-6---5-6---|-5-6---5-6---5---6/--|
|-----------------|---------------------|
|-----------------|---------------------|
|-----------------|---------------------|
|
| E E E E E E E E   E E E E E E Q
|-----------------|---------------------|
|-----------------|---------------------|
|---2-----2-----2-|-----2-----2---------|
|-----------------|---------------------|
|-4---3-4---3-4---|-3-4---3-4-----------|
|-----------------|-------------3b4-----|


  E
   E  E  S  S  S  S  +S   S  S  S  S    S S  S
|----12----------12-(12)-12------------12-x-10-|
|----12-14p12----12-(12)-12-14p12-12---12-x-10-|
|-13----------13-------------------------------|
|----------------------------------------------|
|----------------------------------------------|
|----------------------------------------------|
|
|  E  E  E     E      E      E     E      E
|----------------------------------------------|
|----------------------------------------------|
|-----------------------------------------0----|
|---------------------2-------------------0----|
|-----2----------------------2-----4b5---------|
|--0--0--3-----4-------------------------------|


                                             A
   E  E  S    S  S  S  S  S  S  S  S  S  E    a  E  E  E  E     E  E  E     E
|-10-10-10---------10-10-10----------10-10-|----------17----------17----------|
|-10-10-10h==12----10-10-10-12p10-10-10-10-|-16s17-17-17-17----17----17----17-|
|---------------11-------------------------|-17s18-18----19b21-------19b21----|
|------------------------------------------|----------------------------------|
|------------------------------------------|----------------------------------|
|------------------------------------------|----------------------------------|
|
|  E  E  E       E     E     E     E     E       E  E  E  E     E  E  E     E
|------------------------------------------|----------------------------------|
|-----3------------------------------------|----------------------------------|
|--2--2------------------------------------|-----2--2--2--------2--2----------|
|--0--0----------------------------------0-|-----2--2--2--------2--2----------|
|--------4b5-----0-----3-----0-----2-----0-|-----0--0--0--------0--0----------|
|------------------------------------------|--------------3b4---------3b4---0-|


  E                         A
                                                  ~~~~~~~
   E  E E  E E    E  E  E    E  E  E  E  E  E  E  E
|-17-20---20-----20-20-20-|-17-17-------------17--------|
|-17-19---19-----19-19-19-|-17-17-19-17-17----17-17-----|
|-------------------------|-------19-17-18-------19b21==|
|-------------------------|----------------19-----------|
|-------------------------|-----------------------------|
|-------------------------|-----------------------------|
|
|  E  E E  E S S  E  E  E    E  E  E  E  E  E  E  E
|-------------------------|-----------------------------|
|-------------------------|-----2-----------------4/----|
|--9--9-9--9-9-9--9--9--0-|-----2--------2--2-----5/----|
|--9--9-9--9-9-9--9--9--0-|-----2--0-----2--2-----6/----|
|--7--7-7--7-7-7--7--7----|--0--------0--0--0--0--------|
|-------------------------|-----------------------------|


 ~~~~~~~
   +E    E  E  E  E  E  E  E
|-------17-------------17----------|
|-(17)--17-19-17-17----17-17-------|
|-(19)r----19-17-18-------19b21====|
|-------------------19-------------|
|----------------------------------|
|----------------------------------|
|
|   E    E  E  E  E  E  E  S     S
|----------------------------------|
|---5-------7-----5-----7----------|
|---6-------7-----6-----7----------|
|---7----7--7-----7-----7--------7-|
|--------------0-----0-----0-------|
|----------------------------------|


   +Q        E E    Q         E  S  S
|-----------17---------------17-17-17-|
|-(17)------17-----17--------17-17-17-|
|-(19)r------------19b21--------------|
|-------------------------------------|
|-------------------------------------|
|-------------------------------------|
|
|   E   S S  E S S  E    S S  E  S  S
|-------------------------------------|
|---5--------7------5---------7-------|
|---6--------7------6---------7-------|
|---7-----7--7---7--7---------7-----7-|
|-------0------0---------0-0-----0--0-|
|-------------------------------------|


                                      D
   S  S  S  S  E  E     +Q     Q       a  E  E  E  E  Q         E  E
|-------------17-20b21r(20)---17\---|-------10-12-10-12b13-----12-10-|
|-19p17----17-17-19b20r(19)---17\---|-------10-12-10-12b13-----12-10-|
|-------18--------------------------|-10s11--------------------------|
|-----------------------------------|--------------------------------|
|-----------------------------------|--------------------------------|
|-----------------------------------|--------------------------------|
|
|  E     S  S  E  E      E  E  E  E       Q     E  E  E    S S  E  E
|-----------------------------------|--------------------------------|
|--------------7--5-----------------|--------------------------------|
|--6-----------7--5---------4--2----|-----2-----4--2--4b5--5-5--2--0-|
|--7-----------7--5---------4--2--0-|-----0-----0--0--0----0-0--0--0-|
|--------0--0------------0----------|--------------------------------|
|-----------------------------------|--------------------------------|


                                         A
   E     E    E    E    E    E  E  E     E E E    E E E E E
|-12b13-13---13---13---12---12-10\-----|---5--------5-----5-|
|-12b13-13---13---13---12---12-10\-----|--------------------|
|----------------------------------5---|-6---5----6---5-6---|
|--------------------------------------|--------------------|
|--------------------------------------|--------------------|
|--------------------------------------|--------------------|
|
|  E     E    E    E    E    E  E  E     Q   T S. E E E E E
|--------------------------------------|--------------------|
|--------------------------------------|--------------------|
|--4b5---4b5--4b5--4b5--4b5--0---------|------------2-----2-|
|--0-----0----0----0----0----0--0------|-2--------2---------|
|----------------------------------3b4-|-0---3s4--0---3-4---|
|--------------------------------------|--------------------|


                     E
  E E E E E E E E     E  E  E  E  E  E  E  T  S.
|-----5-----5------|----12-12-12-12----12-12s10---|
|------------------|----12-14-12-15-12-12-12s10---|
|-5-6---5-6---5-6/-|-13-------------13------------|
|------------------|----------------14------------|
|------------------|------------------------------|
|------------------|------------------------------|
|
| E E E E E E E E     Q     E  E  E  E  E  E
|------------------|------------------------------|
|------------------|------------------------------|
|-----2-----2------|------------------------------|
|------------------|-----------------------0------|
|-3-4---3-4---3-4--|--2-----------2--2--4--0------|
|------------------|--0-----3--4--0--0--0---------|


                                   A
   E  E     +Q      E  E     E E   E   +E  E E   +E  E E   +E
|-10-12b13r(12)----10-------10-5-|-7b8r(7)-5---------5-7b8r(7)-|
|-10-12b13r(12)----10-10----10-5-|-7b8r(7)-5-7b8r(7)-5-7b8r(7)-|
|---------------------12b14------|-----------7b8r(7)-----------|
|--------------------------------|-----------------------------|
|--------------------------------|-----------------------------|
|--------------------------------|-----------------------------|
|
|  E  E      E   E  E  E     E E   E    E  E E   +E  E E   +E
|--------------------------------|-----------------------------|
|--------------------------------|-----------------------------|
|--2-----------------------------|-----------------------------|
|--0--2--------------------------|-2----2--2---------2---------|
|------------3b4-0--3--0-----2-0-|-0----0--0-2b3r(2)-0-2b3r(2)-|
|--------------------------------|-----------------------------|


    E                           A
  E E   +E  E E   +E  E   E     +E  E E   +E  E E   +E   E
|-5---------5-7b8r(7)-5-------|-----5-7b8r(7)-5----------5--|
|-5-7b8r(7)-5-7b8r(7)-5---7b8r|=(7)-5-7b8r(7)-5-7b8r(7)--5--|
|---7b8r(7)---------------7b8r|=(7)-------------7b8r(7)-----|
|-----------------------------|-----------------------------|
|-----------------------------|-----------------------------|
|-----------------------------|-----------------------------|
|
| E E    E  E E    E  E   E      E  E E   +E  E E    Q
|-----------------------------|-----------------------------|
|-----------------------------|-----------------------------|
|-----------------------------|-----------------------------|
|-2---------------------------|--2--2-----------------------|
|-0-2----2--2-2----2----------|--0--0-2b3r(2)-0-------------|
|---0----0--0-0----0--3b4-0---|-----------------0----3b5----|


  E   +E  E E   +E  E E   +E    E E E   E E E E   E
|---------5---------5-7b8r(7)-|-5-8-7---5-8-7-5---8-|
|-7b8r(7)-5---------5-7b8r(7)-|-5-8-7---5-8-7-5---8-|
|-----------7b9r(7)-----------|---------------------|
|-----------------------------|---------------------|
|-----------------------------|---------------------|
|-----------------------------|---------------------|
|
| Q       E E    E  E Q         Q   Q     Q   Q
|-----------------------------|---------------------|
|-----------------------------|---------------------|
|-----------------------------|---------------------|
|-2--------------2------------|-2---------2---------|
|-0-------3h4----0------------|-0---------0---------|
|-------------------0-3b4-----|-----3b5-------3b4---|


                  |-3-|
  E E   E   E S S S S S S S   T   T S
|-7-5-------5-8-7-5--------------------|
|-7-5---5---5-------8-7-5-----8p==5----|
|-------7b9---------------7b9-------6/-|
|--------------------------------------|
|--------------------------------------|
|--------------------------------------|
|
| E E   E   E E   E     E     E
|--------------------------------------|
|--------------------------------------|
|---4b5-4---2-----------2--------------|
|-2-4b5-4---2-----------2--------------|
|-0-----------3---4-----0-----4b5------|
|--------------------------------------|


  D
   E  E  S  S  S  S  +E   E      +E    E    E     +E   E  E     +Q    Q
|----10-10-------10-(10)-12b13==(12)r-12-|-12b13r(12)-12-12b13r(12)-------*|
|----10-12p10----10-(10)-12b13==(12)r-12-|-12b13r(12)-12-12b13r(12)-------*|
|-11----------11-------------------------|--------------------------------*|
|----------------------------------------|--------------------------------*|
|----------------------------------------|--------------------------------*|
|----------------------------------------|--------------------------------*|
|
|  Q     E     E      E   E       E    E    E     +E   E  E     +E  E E E
|----------------------------------------|--------------------------------*|
|----------------------------------------|--------------------------------*|
|--2------------------2---2-------4----2-|--4b6r==(4)--2--4b6r==(4)-2-2-2-*|
|--0-----3-----4------0---0-------0----0-|--0----------0--0-----(0)-0-0-0-*|
|----------------------------------------|--------------------------------*|
|----------------------------------------|--------------------------------*|
            
Submit corrections


        Keep Your Hands To Yourself lessons Hard to play? Try these video lessons and learn fast Keep Your Hands To Yourself lessons
        
↑ Back to top | Tablatures and chords for acoustic guitar and electric guitar, ukulele, drums are parodies/interpretations of the original songs. You may use it for private study, scholarship, research or language learning purposes only