» » »

Georgia Satellites - Keep Your Hands To Yourself Bass

Artists:  A B C D E F G H I J K L M N O P Q R S T U V W X Y Z # 

Keep Your Hands To Yourself Bass

(ver. 1) Click to play this song!
Georgia Satellites
 Rating:
3.1/5 (9 votes)

 Keep Your Hands To Yourself lessons Tabs too difficult? Try these video lessons and learn fast
 
                -------------------------------------------------------------------------------
-------------------------------------------------------------------------------

Tuning: Standard

1st chorus
|--------------------||-----------------|
|-------------7---7--||-----------------|
|--------------------||-0--0------------|
|-5-LET RING----5----||------2-0--0-2-0-|x4

VERSE 2 AND 3
A								D
|--------------------------------------------------------------------|------------------|
|--------------7-------------------------------------------7-7---7---|------------------|
|------------------------------------------------------------------7-|-5--5--5-5--5-3-5-|
|-5--5--5--5-5----5--5--5-5--0-5-0--5--5--5-5--5-5--5--5-------5-----|------------------|
                    A                                 E
 A
|------------------|--------------------------------|-----------------------------------|-----|
|------------------|-----------7---7------7-7-5-----|-----------------------------------|-----|
|-5--5--5-5--5-3-5-|-------------7--------------7---|-7--7--7-7-----7--7--7--7-7-----7--|-----|
|------------------|-5--5--5-5--------5-----------5-|-----------7-0--------------7-0----|-5---|

2nd chorus/solo  (PLAY THIS 2 TIMES)
|--------------------------------------------------------------------------------------|
|--------------7-------------------------------------------7-7---7---------------------|
|------------------------------------------------------------------7--5--5--5-5--5-3-5-|
|-5--5--5--5-5----5--5--5-5--0-5-0--5--5--5-5--5-5--5--5-------5-----------------------|

|----------------- -------------------------------------------------------------------|
|-----------------------------7---7------7-7-5----------------------------------------|
|-5--5--5-5--5-3-5--------------7--------------7----7--7--7-7-----7--7--7--7-7-----7--|
|-------------------5--5--5-5--------5-----------5------------7-0--------------7-0----|

|-------------0------------------------------------------|
|---------------------7---7--7---7---7----6--------------|
|-5--5--5-5-----5----------------------------7-7--7---7--|
|-----------5------5----5------5-------5------------0----|

3rd Chorus/solo

PLAY 2ND CHORUS THEN

|---------------------------------------------------------------------------------------|
|--------------7--------------------------------------------7-7---7---------------------|
|-------------------------------------------------------------------7-5--5--5-5--5-3-5--|
|-5--5--5--5-5----5--5--5-5--0-5-0--5--5--5-5--5-5--5---5-------5-----------------------|

|----------------------------------------------------------------------------------|
|----------------------------7---7------7-7-5--------------------------------------|
|-5--5--5-5--5-3-5-------------7------------------------7-7---7-7--------7---7-----|
|------------------5--5--5-5--------5---------8-5--5--------5-----5--5-----5-------|
            
Submit corrections


        Keep Your Hands To Yourself lessons Hard to play? Try these video lessons and learn fast Keep Your Hands To Yourself lessons
        
↑ Back to top | Tablatures and chords for acoustic guitar and electric guitar, ukulele, drums are parodies/interpretations of the original songs. You may use it for private study, scholarship, research or language learning purposes only