» » »

Funeral For A Friend - Into Oblivion Reunion Tabs

Artists:  A B C D E F G H I J K L M N O P Q R S T U V W X Y Z # 

Into Oblivion Reunion Tabs

(ver. 2) Click to play this song!
Funeral For A Friend
 Rating:
4/5 (4 votes)

 Into Oblivion Reunion lessons Tabs too difficult? Try these video lessons and learn fast
 
                
Tuning: Drop Db [Db-Ab-Db-Gb-Bb-Eb]

This is their first single release off this album, enjoy!

[Intro]
Guitar 1 (Distortion):
|------------------------------------------------------------------------|
|---------13-11-10------------------------13-11-10-----------------------|
|-10~-10~-----------12--10-12-10~-10-10~------------12-10-12-10----------|
|------------------------------------------------------------------------|
|------------------------------------------------------------------------|
|------------------------------------------------------------------------|

|------------------------------------------------------------------------|
|---------10-11-10------------10-11-10-----------------------------------|
|-----12-----------12------12-----------12—-10-10~---12~---14~---12~-----|
|--12-------------------12-----------------------------------------------|
|------------------------------------------------------------------------|
|------------------------------------------------------------------------|

Guitar 2 (Distortion):
|------------------------------------------------------------------------|
|------------------------------------------------------------------------|
|-------------------3-3-3-3-3-3-3-3--7-7-7-7-7-7-7-7--5-5-5-5-5-5-5-5----|
|--3-3-3-3-3-3-3-3--3-3-3-3-3-3-3-3--7-7-7-7-7-7-7-7--5-5-5-5-5-5-5-5----|
|--3-3-3-3-3-3-3-3--1-1-1-1-1-1-1-1--5-5-5-5-5-5-5-5--3-3-3-3-3-3-3-3----|
|--3-3-3-3-3-3-3-3-------------------0-0-0-0-0-0-0-0---------------------|

[Verse 1]
Guitar 2 (Clean):
'The days I've felt alone..'
|------------------------------------------------------------------------|
|------------------10---------------10----------------8------------------|
|--10--------------10---------------10----------------9------------------|
|--10--------------8----------------12----------------10-----------------|
|--8---------------------------------------------------------------------|
|------------------------------------------------------------------------|

'So that I can see my wife..'
|----------------------------------------8-------------------------------|
|-----------------------------------------------------------8------------|
|---------9---10----------------9---10-------10----9---10--------10------|
|----10------------10—-[x2]---8---8----8---8-----8---8----8---8----------|
|--8----8---8----8-------------------------------------------------------|
|------------------------------------------------------------------------|
It makes it easier if you use your first finger to bar the 8th fret

|------------------------------------------------------------------------|
|--------8---10------------------------8---------------------------------|
|----7-------------10—[x2]--------------------------[x2]-----------------|
|-/7---7---7----7----------------10------10----10------------------------|
|-----------------------------10----10------10---------------------------|
|------------------------------------------------------------------------|
The second time played without the slide

[Guitar 1] (Clean):
'So that I can see my wife..'
|--------------------------------------------------|
|--------------------------------------------------|
|-10-10-10-10-10-10-10-10-10-10-10-10-10-10-10-10--|
|--------------------------------------------------|
|--------------------------------------------------|
|--------------------------------------------------|
pm . . . . . . . . . . . . . . . . . . . . . . . .
This part is palm muted and is quiter than guitar 2, 
listen to the song for the timing.

‘And I can see my child..’
|--------------------------------------------------|
|--------------------------------------------------|
|-9--9--9--10-10-10-12-12-12-12-12-12-12-12-12-12--|
|--------------------------------------------------|
|--------------------------------------------------|
|--------------------------------------------------|
pm . . . . . . . . . . . . . . . . . . . . . . . .

‘Home, I’m home, it never changes..'
|--------------------------------------------------|
|--------------------------------------------------|
|-14-14-14-12-12-12-10-10-10-9--9--9--10-10-10-10--|
|--------------------------------------------------|
|--------------------------------------------------|
|--------------------------------------------------|
pm . . . . . . . . . . . . . . . . . . . . . . . .

‘Same old faces, same old places..’
|--------------------------------------------------|
|--------------------------------------------------|
|------------------10--9---------------10--9-------|
|--------------------------------------------------|
|--------------------------------------------------|
|--------------------------------------------------|
pm                 .   .               .   .

[Chorus]
Guitar 1 (Distorion):
'I stared into oblivion..'
|---------------------------------------------------------------|
|--10---------------10-----------10-----------------------------|
|-----10~-------10-----10~-----------10~-------12~--12--10--9---|
|-----------12----------------12-----------12-------------------|
|---------------------------------------------------------------|
|---------------------------------------------------------------|

|-----------------------------------------------------------------------------|
|--10---------------10-----------10--------------------------------10---------|
|-----10~-------10-----10~-----------10~-----10-12~-12--10--9—-12~----12-10-9-|
|-----------12----------------12----------12----------------------------------|
|-----------------------------------------------------------------------------|
|-----------------------------------------------------------------------------|
and then leads straight into the intro part

Guitar 2 (Distortion):
|------------------------------------------------|
|------------------------------------------------|
|--7-7-7-7--3-3-3-3-----------5-5-5-5------------|
|--7-7-7-7--3-3-3-3--3-3-3-3--5-5-5-5—[x2]-------|
|--5-5-5-5--1-1-1-1--3-3-3-3--3-3-3-3------------|
|--0-0-0-0-----------3-3-3-3---------------------|
But on the second time round the last chord is played twice over.

[Intro]

[Verse 2]
Guitar 1 (Clean)
'Find in me the hope..' 
|--------------------------------------------------|
|--------------------------------------------------|
|-10-10-10-10-10-10-10-10-10-10-10-10-10-10-10-10--|
|-10-10-10-10-10-10-10-10-10-10-10-10-10-10-10-10--|
|--------------------------------------------------|
|--------------------------------------------------|
pm . . . . . . . . . . . . . . . . . . . . . . . .
Again, similar to the first verse so listen to the song for the timing.

|--------------------------------------------------|
|--------------------------------------------------|
|-9--9--9--10-10-10-12-12-12-12-12-12-12-12-12-12--|
|-10-10-10-10-10-10-10-10-10-10-10-10-10-10-10-10--|
|--------------------------------------------------|
|--------------------------------------------------|
pm . . . . . . . . . . . . . . . . . . . . . . . .

'That you have never known..'
|--------------------------------------------------|
|--------------------------------------------------|
|-14-14-14-12-12-12-10-10-10-9--9--9--10-10-10-10--|
|-12-12-12-12-12-12-12-12-12-12-12-12-12-12-12-12--|
|--------------------------------------------------|
|--------------------------------------------------|
pm . . . . . . . . . . . . . . . . . . . . . . . .

This part gets really quiet
|--------------------------------------------------|
|--------------------------------------------------|
|-12-12-12-10-10-10-10-10-12-12-12-10-10-10-10-10--|
|-10-10-10-10-10-10-10-10-10-10-10-10-10-10-10-10--|
|--------------------------------------------------|
|--------------------------------------------------|
pm . . . . . . . . . . . . . . . . . . . . . . . .

Repeat, but the last phrase before the chorus is played:
|--------------------------------------------------|
|--------------------------------------------------|
|------------------10--9---------------10--9-------|
|------------------10--10--------------10--10------|
|--------------------------------------------------|
|--------------------------------------------------|
pm                 .   .               .   .
Listen to the song and you know what I’m talking about.

Guitar 2 comes in on the repeat

Guitar 2 (Mild Distortion):
'Find in us the faith..' 
|-----------------------------------------8----8-----8-------|
|------------------------------------------------------------|
|---------9---10-----------------9--9--9-----9-----9----9----|
|----10------------10—-----------8--8--8-----8-----8----8----|
|--8----8---8----8-------------------------------------------|
|------------------------------------------------------------|
this part is really quiet but you can hear distinctly the high parts.

'The faith to bring you..'
|--------------------------------------------------|
|--------------------------------------------------|
|-14-14-14-12-12-12-10-10-10-9--9--9--10-10-10-10--|
|-12-12-12-12-12-12-12-12-12-10-10-10-10-10-10-10--|
|--------------------------------------------------|
|--------------------------------------------------|
pm . . . . . . . . . . . . . . . . . . . . . . . .
this part is played much quieter than guitar 1

‘..home’
|------------------------------------------|
|------------------------------------------|
|-10-10-10-10-10-10-10-10-----x--x--x--x---|
|-10-10-10-10-10-10-10-10-----x--x--x--x---|
|-----------------------------x--x--x--x---|
|-----------------------------x--x--x--x---|
pm . . . . . . . . . . . 

[Chorus]

[Bridge]:
'Home, now that I'm coming home..'
|----------------------------------------8-------------------------------|
|-----------------------------------------------------------8------------|
|---------9---10----------------9---10-------10----9---10--------10------|
|----10------------10—-[x4]---8---8----8---8-----8---8----8---8----------|
|--8----8---8----8-------------------------------------------------------|
|------------------------------------------------------------------------|

'Will you be the same as when i saw you last, Tell me how much time has passed..'
|------------------------------------------------------------------------|
|--------8---10------------------------8---------------------------------|
|----7-------------10—[x2]--------------------------[x2]-----------------|
|-/7---7---7----7----------------10------10----10------------------------|
|-----------------------------10----10------10---------------------------|
|------------------------------------------------------------------------|
This part is repeated, with drums and bass on the second time round but the first clean
repeated twice as to four times.

[Chorus]
Guitar 1 (Distortion)
'Home, now that I'm coming home..
|------------------------------------------------------------------------|
|---------13-11-10------------------------13-11-10-----------------------|
|-10~-10~-----------12--10-12-10~-10-10~------------12-10-12-10----------|
|------------------------------------------------------------------------|
|------------------------------------------------------------------------|
|------------------------------------------------------------------------|

This time Guitar 1 plays a different lick:
'..same as when i saw you last, Tell me how much time has passed..'
|------------------------------------------------------------------------|
|---------10~-------------10-11-10---------------------------------------|
|-----12--------------12------------12—-10-10~---12~-14~-14-15-14—12-----|
|--12-------------12-----------------------------------------------------|
|------------------------------------------------------------------------|
|------------------------------------------------------------------------|

|------------------------------------------------------------------------|
|---------13-11-10------------------------13-11-10-----------------------|
|-10~-10~-----------12--10-12-10~-10-10~------------12-10-12-10----------|
|------------------------------------------------------------------------|
|------------------------------------------------------------------------|
|------------------------------------------------------------------------|
This bar played twice[x2]

Except the last phrase is repeated twice:
|--------------------------|
|--13-11-10----------------|
|------------12-10-12-10---|
|--------------------------|
|--------------------------|
|--------------------------| [x2]

Chorus played once more, with the repeated end part:
'..And found my own way back to there.'
|------------------------------------------------------------|
|----13-11-10----------------13-11-10------------------------|
|-------------12-10-12-10--------------12-10--12—-10~~~------|
|------------------------------------------------------------|
|------------------------------------------------------------|
|------------------------------------------------------------|

[End]

This tab is correct, and took ages to make accurate so hope you enjoy it and please 
Also feel free to leave your comments, they will be very much appreciated.
            
Submit corrections


        Into Oblivion Reunion lessons Hard to play? Try these video lessons and learn fast Into Oblivion Reunion lessons
        
↑ Back to top | Tablatures and chords for acoustic guitar and electric guitar, ukulele, drums are parodies/interpretations of the original songs. You may use it for private study, scholarship, research or language learning purposes only