» » »

Funeral For A Friend - Into Oblivion Reunion Bass

Artists:  A B C D E F G H I J K L M N O P Q R S T U V W X Y Z # 

Into Oblivion Reunion Bass

(ver. 1) Click to play this song!
Funeral For A Friend
 Rating:
4/5 (4 votes)

 Into Oblivion Reunion lessons Tabs too difficult? Try these video lessons and learn fast
 
                -------------------------------------------------------------------------------
		  Into Oblivion (Reunion) - Funeral for A Friend
-------------------------------------------------------------------------------


 Tuning:Drop D Flat (Db Ab Db Gb) 
  
 Intro x1 (0.23)
Gb|---------------------------------------------------------------------------|
Db|---------------------------------------------------------------------------|
Ab|-------------------------------------------------------33-3-33-3-33-3-33---|
Db|33-3-33-3-33-3-33-3/8-8-88-8-88-8-88-8\00-00-0-00-0-00---------------------|
  x1
Gb|-----------------------------------------------------------------------|
Db|-----------------------------------------------------------------------|
Ab|-----------------------------------5555555555555555-3333333333333333---|
Db|3333333333333333/-8888888888888888-------------------------------------|

  Verse x2 "The days I felt alone...."
Gb|--------------------------------------------------------------------------|
Db|--------------------------------------------------------------------------|
Ab|-----------------------------------5555555555555555-333333333333-3-3h5-55-|
Db|3333333333333333/-8888888888888888----------------------------------------|

  Chorus
Gb|--------------------------------------|
Db|--------------------------------------|
Ab|----------------------------33333333--|
Db|00000000/-88888888-33333333-----------|

Gb|------------------------------------------------|
Db|------------------------------------------------|
Ab|----------------------------3333333333333333----|
Db|00000000/-88888888-33333333---------------------|
  
 Post-Chorus
Gb|-----------------------------------------------------------------------|
Db|-----------------------------------------------------------------------|
Ab|-----------------------------------5555555555555555-3333333333333333---|
Db|3333333333333333/-8888888888888888-------------------------------------|

  Verse x2 "Find in me the hope...."
Gb|--------------------------------------------------------------------------|
Db|--------------------------------------------------------------------------|
Ab|-----------------------------------5555555555555555-333333333333-3-3h5-55-|
Db|3333333333333333/-8888888888888888----------------------------------------|

  Chorus x3
Gb|--------------------------------------|
Db|--------------------------------------|
Ab|----------------------------33333333--|
Db|00000000/-88888888-33333333-----------|
  x1
Gb|------------------------------------------------|
Db|------------------------------------------------|
Ab|----------------------------3333333333333333----|
Db|00000000/-88888888-33333333---------------------|

  Bridge (3.11)
Gb|---------------------------------------------------------------------------|
Db|---------------------------------------------------------------------------|
Ab|-------------------------------------------------------33-3-33-3-33-3-33---|
Db|33-3-33-3-33-3-33-3/8-8-88-8-88-8-88-8\00-00-0-00-0-00---------------------|
   x4
Gb|-----------------------------------------------------------------------|
Db|-----------------------------------------------------------------------|
Ab|-----------------------------------5555555555555555-3333333333333333---|
Db|3333333333333333/-8888888888888888-------------------------------------|
   
  End off
Gb|--------------|
Db|--------------|
Ab|--------------|
Db|3~------------|
            
Submit corrections


        Into Oblivion Reunion lessons Hard to play? Try these video lessons and learn fast Into Oblivion Reunion lessons
        
↑ Back to top | Tablatures and chords for acoustic guitar and electric guitar, ukulele, drums are parodies/interpretations of the original songs. You may use it for private study, scholarship, research or language learning purposes only