Home » F » From First To Last »

From First To Last - Worlds Away Tabs

Artists:  A B C D E F G H I J K L M N O P Q R S T U V W X Y Z # 

Worlds Away Tabs

(ver. 2) Click to play this song!
From First To Last
----------------------------------------------------------------------------
		             Worlds Away - From First To Last
----------------------------------------------------------------------------

Tuning: Drop C

So I had fun doing this,if you feel its not right then contact me with any corrections
I would like to know. thank you.

-----------------------Lead Guitar (for the most part)----------------------

Intro:
D|-------------------------------------------------------------------------|
A|-------------------------------------------------------------------------|
F|12-12-12-12-12h-13b-12-10---15-17-12h-13-12h-13-12-10-12-8-10-8----------|
C|--------------------------13---------------------------------------------|
G|-------------------------------------------------------------------------|
C|-------------------------------------------------------------------------|

Verse1: (play 2 times)
D|-------------------------------------------------------------------------|
A|-------------------------------------------------------------------------|
F|-------------------------------------------12-12-12---------13-13-13-13--|
C|-10-10-10-10-------------13-13-13-10-10-10----------13-13-13-------------|
G|-------------10-10-10-10-------------------------------------------------|
C|-------------------------------------------------------------------------|

D|-------------------------------------------------------------------------|
A|-12-12-12-12-------------------------------------------------------------|
F|-------------------------------------------------------------------------|
C|-------------------------------------------------------------------------|
G|-------------------------------------------------------------------------|
C|-------------------------------------------------------------------------|

D|-------------------------------------------------------------------------|
A|-------------------------------------------------------------------------|
F|------------------------------------------12-12-12---------13-13-13-13---|
C|------------------------13-13-13-10-10-10----------13-13-13--------------|
G|------------10-10-10-10--------------------------------------------------|
C|13-13-13-13--------------------------------------------------------------|

D|-------------------------------------------------------------------------|
A|-12-12-12-12-------------------------------------------------------------|
F|-------------------------------------------------------------------------|
C|-------------------------------------------------------------------------|
G|-------------------------------------------------------------------------|
C|-------------------------------------------------------------------------|

D|-------------------------------------------------------------------------|
A|-------------------------------------------------------------------------|
F|------------------------------------------12-12-12---------13-13-13-13---|
C|------------------------13-13-13-10-10-10----------13-13-13--------------|
G|------------10-10-10-10--------------------------------------------------|
C|10-10-10-10--------------------------------------------------------------|

D|-------------------------------------------------------------------------|
A|-12-12-12-12-------------------------------------------------------------|
F|-------------------------------------------------------------------------|
C|-------------------------------------------------------------------------|
G|-------------------------------------------------------------------------|
C|-------------------------------------------------------------------------|

D|-------------------------------------------------------------------------|
A|-------------------------------------------------------------------------|
F|---------------------------------------12-12-12---------13-13-13-13------|
C|---------------------13-13-13-10-10-10----------13-13-13-----------------|
G|---------10-10-10-10-----------------------------------------------------|
C|-6-6-6-6-----------------------------------------------------------------|

D|-------------------------------------------------------------------------|
A|-12-12-12-12-------------------------------------------------------------|
F|-------------------------------------------------------------------------|
C|-------------------------------------------------------------------------|
G|-------------------------------------------------------------------------|
C|-------------------------------------------------------------------------|

Pre-Chorus: (lightly mute your strings - listen to the song and you'll understand)
D|-------------------------------------------------------------------------|
A|-------------------------------------------------------------------------|
F|-5-x-5-x-5-x-5-x-5-x-5-x-5-x-5-------------------------------------------|
C|-x-x-x-x-x-x-x-x-x-x-x-x-x-x-x-------------------------------------------|
G|-3-x-3-x-3-x-3-x-3-x-3-x-3-x-3-------------------------------------------|
C|-------------------------------------------------------------------------|

Chorus1: (play 2 times)
D|-------------------------------------------------------------------------|
A|-------------------------------------------------------------------------|
F|-5-5-5-5-5-5-5-5-8-8-8-8---------8-8-8-8-8-8-8-8-------------------------|
C|-5-5-5-5-5-5-5-5-8-8-8-8-6-6-6-6-8-8-8-8-8-8-8-8-------------------------|
G|-3-3-3-3-3-3-3-3-6-6-6-6-6-6-6-6-6-6-6-6-6-6-6-6-------------------------|
C|-------------------------6-6-6-6-----------------------------------------|

Verse2:									
D|-------------------------------------------------------------------------|
A|-------------------------------------------------------------------------|
F|-------------------------------------------12-12-12---------13-13-13-13--|
C|-10-10-10-10-------------13-13-13-10-10-10----------13-13-13-------------|
G|-------------10-10-10-10-------------------------------------------------|
C|-------------------------------------------------------------------------|

D|-------------------------------------------------------------------------|
A|-12-12-12-12-------------------------------------------------------------|
F|-------------------------------------------------------------------------|
C|-------------------------------------------------------------------------|
G|-------------------------------------------------------------------------|
C|-------------------------------------------------------------------------|

D|-------------------------------------------------------------------------|
A|-------------------------------------------------------------------------|
F|------------------------------------------12-12-12---------13-13-13-13---|
C|------------------------13-13-13-10-10-10----------13-13-13--------------|
G|------------10-10-10-10--------------------------------------------------|
C|13-13-13-13--------------------------------------------------------------|

D|-------------------------------------------------------------------------|
A|-12-12-12-12-------------------------------------------------------------|
F|-------------------------------------------------------------------------|
C|-------------------------------------------------------------------------|
G|-------------------------------------------------------------------------|
C|-------------------------------------------------------------------------|
(play the above 4 bars twice [2 times])

D|-------------------------------------------------------------------------|
A|-------------------------------------------------------------------------|
F|------------------------------------------12-12-12---------13-13-13-13---|
C|------------------------13-13-13-10-10-10----------13-13-13--------------|
G|------------10-10-10-10--------------------------------------------------|
C|10-10-10-10--------------------------------------------------------------|

D|-------------------------------------------------------------------------|
A|-12-12-12-12-------------------------------------------------------------|
F|-------------------------------------------------------------------------|
C|-------------------------------------------------------------------------|
G|-------------------------------------------------------------------------|
C|-------------------------------------------------------------------------|

D|-------------------------------------------------------------------------|
A|-------------------------------------------------------------------------|
F|---------------------------------------12-12-12---------13-13-13-13------|
C|---------------------13-13-13-10-10-10----------13-13-13-----------------|
G|---------10-10-10-10-----------------------------------------------------|
C|-6-6-6-6-----------------------------------------------------------------|

D|-------------------------------------------------------------------------|
A|-12-12-12-12-------------------------------------------------------------|
F|-------------------------------------------------------------------------|
C|-------------------------------------------------------------------------|
G|-------------------------------------------------------------------------|
C|-------------------------------------------------------------------------|	
Pre-Chorus2:
Chorus2: (play 4 times)

Bridge: (play 3 times and you'll notice this is the same line as the pre-chorus)
D|-------------------------------------------------------------------------|
A|-------------------------------------------------------------------------|
F|-5-x-5-x-5-x-5-x-5-x-5-x-5-x-5-------------------------------------------|
C|-x-x-x-x-x-x-x-x-x-x-x-x-x-x-x-------------------------------------------|
G|-3-x-3-x-3-x-3-x-3-x-3-x-3-x-3-------------------------------------------|
C|-------------------------------------------------------------------------|

(on the 4th time play this and there are breif pauses after each chord)
D|-------------------------------------------------------------------------|
A|-------------------------------------------------------------------------|
F|-------------------------------------------------------------------------|
C|-3--3--3--3--6--6--6--6--------------------------------------------------|
G|-3--3--3--3--6--6--6--6--------------------------------------------------|
C|-3--3--3--3--6--6--6--6--------------------------------------------------|

Chorus3: (play 2 times)

Outro: (exactly the same as the intro riff with one note change) :] haha

D|-------------------------------------------------------------------------|
A|-------------------------------------------------------------------------|
F|12-12-12-12-12h-13b-12-10---15-17-12h-13-12h-13-12-10-12-8-10------------|
C|--------------------------13---------------------------------------------|
G|-------------------------------------------------------------------------|
C|-------------------------------------------------------------------------|

D|-------------------------------------------------------------------------|
A|-------------------------------------------------------------------------|
F|12-12-12-12-12h-13b-12-10---15-17-12h-13-12h-13-12-10-12-8-10-8~---------|
C|--------------------------13---------------------------------------------|
G|-------------------------------------------------------------------------|
C|-------------------------------------------------------------------------|

Song Structure:

Intro
Pre-Chorus
Chorus
Verse
Pre-Chorus
Chorus
Pre-Chorus/Bridge
Chorus
Outro


We pave the roads we take
We bend before we break
Across the world with you
Across the world with you
The love you never found
Was right here all along
Waiting here for you
Waiting here for you
When words mean nothing I'll be here singing On and on and on and on
Worlds away I'll still be singing On and on and on and on
I know you feel like you've come to far
But you can always trace your steps back to the start
Tearing down what you had tried to build
Sometimes earthquakes have a chance to kill
When words mean nothing I'll be here singing On and on and on and on
Worlds away I'll still be singing On and on and on and on
When words mean nothing I'll be here singing On and on and on and on
Whoa
Worlds away I'll still be singing On and on and on and on
Whoa Whoa Whoa Whoa
When words mean nothing I'll be here singing On and on and on and on
Worlds away I'll still be singing On and on and on and on

Key (Guitar Symbols and Whatnot):

| b  bend
| /  slide up
| \  slide down
| h  hammer-on
| p  pull-off
| ~  vibrato
| +  harmonic
| x  Mute note
============================================================================
            
Submit corrections

↑ Back to top | Tablatures and chords for acoustic guitar and electric guitar, ukulele, drums are parodies/interpretations of the original songs. You may use it for private study, scholarship, research or language learning purposes only