Home » F » From First To Last »

From First To Last - Worlds Away Tabs

Artists:  A B C D E F G H I J K L M N O P Q R S T U V W X Y Z # 

Worlds Away Tabs

(ver. 1) Click to play this song!
From First To Last
-------------------------------------------------------------------------------
			     WORLDS AWAY
				by From First To Last
					From First To Last (2008)
-------------------------------------------------------------------------------
Play in half step down for this, like other FFTL songs (e.g Two As One).
Both great songs :)


Tuning: Standard flat tuning (eb Bb Gb Db Ab Eb)

INTRO

Rhythm:

eb|---------------------------------------------------------------------------|
Bb|---------------------------------------------------------------------------|
Gb|--------------7777----------77777777--------------7777----------77777777---|
Db|-999999999999-7777-55555555-77777777-999999999999-7777-55555555-77777777---|
Ab|-999999999999-5555-55555555-55555555-999999999999-5555-55555555-55555555---|
Eb|-777777777777------33333333----------777777777777------33333333------------|

Lead:

eb|-2-2-2-2-2-2-2-2b-2-0--5-7-9-7--------------0-----0------------------------|
Bb|---------------------3---------7-8-7-8-7-8-7--7-3---3----------------------|
Gb|---------------------------------------------------------------------------|
Db|---------------------------------------------------------------------------|
Ab|---------------------------------------------------------------------------|
Eb|---------------------------------------------------------------------------|

VERSE

Lead:

eb|-----------------222---33333333-2222-------------------222---33333333-2222-|
Bb|-0000----333-0000---333-----------------------333-0000----333--------------|
Gb|---------------------------------------------------------------------------|
Db|-----4444----------------------------0000-4444-----------------------------|
Ab|---------------------------------------------------------------------------|
Eb|---------------------------------------------------------------------------|

eb|-----------------222---33333333-2222-----------------222---33333333-2222---|
Bb|---------333-0000---333----------------------333-0000---333----------------|
Gb|---------------------------------------------------------------------------|
Db|-----4444--------------------------------4444------------------------------|
Ab|-2222----------------------------------------------------------------------|
Eb|-------------------------------------3333----------------------------------|

(Repeat)

PRE-CHORUS

Lead:

eb|------------------|
Bb|-3-3-3-3-3-3-3-3--|
Gb|------------------|
Db|------------------|
Ab|--2-2-2-2-2-2-2-2-|
Eb|------------------|

CHORUS

eb|---------------------------------------------------------------------------|
Bb|---------------------------------------------------------------------------|
Gb|--------------7777----------77777777--------------7777----------77777777---|
Db|-999999999999-7777-55555555-77777777-999999999999-7777-55555555-77777777---|
Ab|-999999999999-5555-55555555-55555555-999999999999-5555-55555555-55555555---|
Eb|-777777777777------33333333----------777777777777------33333333------------|

9-9-7: When words mean nothing, I'll be here
7-7-5: Singing
5-5-3: On and on and on
7-7-5: And on...

(Repeat)

VERSE

CHORUS

BRIDGE

Lead:

eb|----|
Bb|-3--|
Gb|----|
Db|----|
Ab|--2-|
Eb|----|

Rhythm (after 4 plays of lead)

eb|---------------------------------------------------------------------------|
Bb|---------------------------------------------------------------------------|
Gb|---------------------------------------------------------------------------|
Db|-9999999999999999-5555555555555555-2-2-2-2-5-5-5-5-------------------------|
Ab|-9999999999999999-5555555555555555-2-2-2-2-5-5-5-5-------------------------|
Eb|-7777777777777777-3333333333333333-0-0-0-0-3-3-3-3-------------------------|

CHORUS

OUTRO

Rhythm

eb|---------------------------------------------------------------------------|
Bb|---------------------------------------------------------------------------|
Gb|--------------7777----------7777-------------------------------------------|
Db|-99-999-999-9-7777-55-555-5-7777-------------------------------------------|
Ab|-99-999-999-9-5555-55-555-5-5555-------------------------------------------|
Eb|-77-777-777-7------33-333-3------------------------------------------------|

Repeat

Lead:

eb|-2-2-2-2-2-2-2-2b-2-0--5-7-9-7--------------0-----0------------------------|
Bb|---------------------3---------7-8-7-8-7-8-7--7-3---3----------------------|
Gb|---------------------------------------------------------------------------|
Db|---------------------------------------------------------------------------|
Ab|---------------------------------------------------------------------------|
Eb|---------------------------------------------------------------------------|


| /  slide up
| \  slide down
| h  hammer-on
| p  pull-off
| ~  vibrato
| +  harmonic
| x  Mute note
===============================================================================
            
Submit corrections

↑ Back to top | Tablatures and chords for acoustic guitar and electric guitar, ukulele, drums are parodies/interpretations of the original songs. You may use it for private study, scholarship, research or language learning purposes only