Home » F » From First To Last »

From First To Last - Worlds Away Bass

Artists:  A B C D E F G H I J K L M N O P Q R S T U V W X Y Z # 

Worlds Away Bass

(ver. 1) Click to play this song!
From First To Last
11/06/2010 at 1:56am - Mr.Gav

Track: Worlds Away

Intro:
F#|---------------------------------------------------------------|
C#|---------------------------------------------------------------|
G#|-2-2-2-2-2-2-2-2-2-2-2/5-5-5-5-----------------5-5-5-5-5-5-5-5-|
C#|-------------------------------5-5-5-5-5-5-5-5-----------------|

Verse 1:
F#|-----------------------------------------------------------------|
C#|-----------------------------------------------------------------|
G#|-2-2-2-2-2-2-2-2-2-2-2-2-2-2-2-2-2-2-2-2-2-2-2-2-0-0-0-0-0-0-0-0-|
C#|-----------------------------------------------------------------|

F#|-----------------------------------------------------------------|
C#|-----------------------------------------------------------------|
G#|-5-5-5-5-5-5-5-5-5-5-5-5-5-5-5-5-5-5-5-5-5-5-5-5-5-5-5-5---------|
C#|---------------------------------------------------------7-7-7-7-|

F#|-----------------------------------------------------------------|
C#|-----------------------------------------------------------------|
G#|-----------------------------------------------------------------|
C#|-5-5-5-5-5-5-5-5-5-5-5-5-5-5-5-5-5-5-5-5-5-5-5-5-5-5-5-5-4-4-4-4-|

F#|-----------------------------------------------------------------|
C#|-----------------------------------------------------------------|
G#|-----------------------------------------------------------------|
C#|-2-2-2-2-2-2-2-2-2-2-2-2-2-2-2-2-5-5-5-5-5-5-5-5-5-5-5-5-5-5-5-5-|x2

then...

F#|-------|
C#|-------|
G#|-2~----|
C#|-------|

Chorus:
F#|---------------------------------------------------------|
C#|---------------------------------------------------------|
G#|-2-2-2-2-2-2-2-2/5-5-5-5-----------------5-5-5-5-5-5-5-5-|
C#|-------------------------5-5-5-5-5-5-5-5-----------------|

F#|---------------------------------------------------------------------|
C#|---------------------------------------------------------------------|
G#|-2-2-2-2-2-2-2-2/5-5-5-5-----------------5-5-5-5-5-5-5-5-2~----5~----|
C#|-------------------------5-5-5-5-5-5-5-5-----------------------------|

Verse 2 as Verse 1.

Then Chorus again played 4 times through ending on G#|-2~---|.

Bridge:
F#|---------------------------------11-11-11----------12(x8)-11-11-11-11-|
C#|-9-9-9-9----------12-12-12-9-9-9----------12-12-12--------------------|
G#|---------9-9-9-9------------------------------------------------------|
C#|----------------------------------------------------------------------|

F#|---------------------------------11-11-11----------12(x8)-11-11-11-11-|
C#|------------------12-12-12-9-9-9----------12-12-12--------------------|
G#|---------9-9-9-9------------------------------------------------------|
C#|-5-5-5-5--------------------------------------------------------------|

F#|---------------------------------|
C#|---------------------------------|
G#|---------------------------------|
C#|-2---2---2---2---5---5---5---5---|

Then back to chorus, played twice over.

then the outro:
F#|-----------------------------------------------------------------|
C#|-----------------------------------------------------------------|
G#|-2-2---2-2-2---2-2-2---2/5-5-5-5-----------------5-5---5-5-5---5-|
C#|---------------------------------5-5---5-5-5---5-----------------|x2

F#|-------------|
C#|-------------|
G#|-2~----------|
C#|-------------|
            
Submit corrections

↑ Back to top | Tablatures and chords for acoustic guitar and electric guitar, ukulele, drums are parodies/interpretations of the original songs. You may use it for private study, scholarship, research or language learning purposes only