Home » F » From First To Last »

From First To Last - Lastest Plague Bass

Artists:  A B C D E F G H I J K L M N O P Q R S T U V W X Y Z # 

Lastest Plague Bass

(ver. 3) Click to play this song!
From First To Last

Ok this song is on 5 strings.. you can play it on four but you will have to put E to C, 
it wont sound as good. Ya so any ways here is The Latest Plague…

Verse
G----------     G----------|
D----------     D----------|
A---------- X6  A-8---7----|
E----------     E--666-888-|
B-0-000----     B----------|

G----------     G----------|
D----------     D----------|
A---------- X6  A-8---7----|
E----------     E--666-888-|
B-0-000----     B----------|

Pre-Chorus
G-------------------------------------------------|
D-------------------------------------------------|
A-------------------------------------------------|
E-------------------------------------------------|
B-1111111111111111------55555555-1010101010101010-|
   (those are ones)               (these are 10)

Chorus X2
G-------------------------------------------------------------------|
D-------------------------------------------------------------------|
A-3333333333333333----------------------------------------1111-2222-|
E----------------4444444444444444-11111111-00000000-----------------|
B---------------------------------------------------22222222--------|

Pre-Verse
G-------------------------|
D-------------------------|
A-------------------------|
E-3-3-3-3-3-3-3-3---------|
B-----------------1-1-111-| <(play on offbeat)

Verse
G----------     G----------|
D----------     D----------|
A---------- X6  A-8---7----|
E----------     E--666-888-|
B-0-000----     B----------|

G----------     G----------|
D----------     D----------|
A---------- X6  A-8---7----|
E----------     E--666-888-|
B-0-000----     B----------|

Pre-Chorus
G-------------------------------------------------|
D-------------------------------------------------|
A-------------------------------------------------|
E-------------------------------------------------|
B-1111111111111111------55555555-1010101010101010-|
   (those are ones)               (these are 10)

Chorus X2
G-------------------------------------------------------------------|
D-------------------------------------------------------------------|
A-3333333333333333----------------------------------------1111-2222-|
E----------------4444444444444444-11111111-00000000-----------------|
B---------------------------------------------------22222222--------|

(right about now they should be doing that talking thing n than sunny screams, n than u do this)

Bridge X2
G---------------------------------------------------|
D--------------------------------------------10---9-|
A-3-3-3-3-3-3-3-----------------------44---3/---3/--|
E----------------3-4-4-4-4-4-4-4-4-------66---------|
B---------------------------------------------------|

Chorus X2
G-------------------------------------------------------------------|
D-------------------------------------------------------------------|
A-3333333333333333----------------------------------------1111-2222-|
E----------------4444444444444444-11111111-00000000-----------------|
B---------------------------------------------------22222222--------|

Outro X4               (FAST)
G-------------------------------------------|
D---1-0---------0------1-0------------------|
A-----------3-1----------------3-1-3--------|
E-------------------------------------------|
B-------------------------------------------|

Hey yea so here yea go The Latest Plague….please rate… n if u want me to tab it out for 
string tell me!!
            
Submit corrections

↑ Back to top | Tablatures and chords for acoustic guitar and electric guitar, ukulele, drums are parodies/interpretations of the original songs. You may use it for private study, scholarship, research or language learning purposes only