Home » F » From First To Last »

From First To Last - Lastest Plague Tabs

Artists:  A B C D E F G H I J K L M N O P Q R S T U V W X Y Z # 

Lastest Plague Tabs

(ver. 1) Click to play this song!
From First To Last
ok well im still a bit new to tabbing but i thought id try sumthin a bit harder sooo
a tab for a song of FFTL new album:heroin-the latest plague

comments ratings welcome..............from jordan(its in drop d by the way)


intro(twelves etc.)repeat(also in verse)
|---121212121212121212-------------------------|---------|
|----------------------10--12-11--10--12-11----|---------|
|----------------------------------------------|---------|
|----------------------------------------------|-6~/-----|
|----------------------------------------------|---------|
|----------------------------------------------|---------|
(no lyrics)

verse mainly bass
|----------------------------------------------------------------------|
|----------------------------------------------------------------------|
|----------------------------------------------------------------------|
|-0-3-2-0----------------0-0-3-3-2-2-0-0-------------777777----99999---|
|-0-3-2-0----------------0-0-3-3-2-2-0-0-------------777777----99999---|
|-0-3-2-0----------------0-0-3-3-2-2-0-0-------------777777----99999---|
what would you say if this blemished face, this blemished face with a  crooked nose had 
chance to say whatever he wanted
nouns and verbs like shallow heartache THE SOUND OF VICTORY BLOWING UP YOUR WORLD world.........


chorus chords(repeat lotsdo it x2)
|-----------|-----12-12-12|
|-----------|pre-verse----|
|-----------|-------------|
|-5--2-3-1-0|0-0-0-0-0-0--|
|-5--2-3-1-0|0-0-0-0-0-0--|
|-5--2-3-1-0|0-0-0-0-0-0--|
fake faces everywhere i see fake people looking back at me sit down dont tell dont tell 
where i dont belong!


VERSE TWO IS THE SAME AS VERSE 1
ohh... i heard a sick sad voice it was honesty i turned to her and said
we need to be medicated and your the prescription for a forced out vision
if your with me send the criticts to hell with the sound of our voices voices

PLAY CHORUS

interlude(first bit is just distortion etc.)(intro in background)mix it up a bit
|-------------------------------|
|-------------------------------|
|repeat-------------------------|
|0-0-210-0-0-210----------------|
|0-0-210-0-0-210----------------|
|0-0-210-0-0-210----------------|
all you better thans that fed us s**t will be knocked on the floor
so dont place your bets just yet all you treasure keepers feed on s**t
youll be knocked on the floor SO DONT YOU PLACE!!!!!!!!!!!!..................
.............


REPEAT CHORUS

outro(repeat)
|------------------------------------------------|
|------------------------------------------------|
|------------------------------------------------|
|-2-1-0-0/---------------------------------------|
|-2-1-0-0/---------------------------------------|
|-2-1-0-0/---------------------------------------|

thanx cya
            
Submit corrections

↑ Back to top | Tablatures and chords for acoustic guitar and electric guitar, ukulele, drums are parodies/interpretations of the original songs. You may use it for private study, scholarship, research or language learning purposes only