Home » F » From First To Last »

From First To Last - Lastest Plague Bass

Artists:  A B C D E F G H I J K L M N O P Q R S T U V W X Y Z # 

Lastest Plague Bass

(ver. 1) Click to play this song!
From First To Last
----------------------------------------------------------------------------
			     The Latest Plague - From First To Last
----------------------------------------------------------------------------
 

Tuning: Drop-C





Verse:
E---------|-----------------|     x3
B---------|-----------------|
F---------|-----------------|
C-12(bend)|------1212/00----|

E-----------------------| 
B---------8---7---------|
F----------666-888------|
C----1212---------------|

E-----------------|     x3
B-----------------|
F-----------------|
C------1212/00----|


E-----------------------| 
B---------8---7---------|
F----------666-888------|
C----1212---------------|


E--------------------------------------------------------| 
B--------------------------------------------------------|
F--3333333333333333----66666666-1111111111111111---------|
C--------------------------------------------------------|
                                 (these are 11’s)


Chorus:
E-------------------------------------------------------------------| 
B-------------------------------------------------------------------|
F-------------------1111111111111111------------------------33333333|
C--0000000000000000------------------555555554444444411111111-------|


Pre-Verse:
E--------------------------------------------------------| 
B--------------------------------------------------------|
F--------------------------------------------------------|
C--0-0-0-0-0-0-0-0---0---0---0--0000---------------------|




Verse:
E---------|-----------------|     x3
B---------|-----------------|
F---------|-----------------|
C-12(bend)|------1212/00----|



E-----------------------| 
B---------8---7---------|
F----------666-888------|
C----1212---------------|

E-----------------|     x3
B-----------------|
F-----------------|
C------1212/00----|


E-----------------------| 
B---------8---7---------|
F----------666-888------|
C----1212---------------|


E--------------------------------------------------------| 
B--------------------------------------------------------|
F--3333333333333333----66666666-1111111111111111---------|
C--------------------------------------------------------|
                                      (these are 11’s)



Chorus:
E-------------------------------------------------------------------| 
B-------------------------------------------------------------------|
F-------------------1111111111111111------------------------33333333|
C--0000000000000000------------------555555554444444411111111-------|


Bridge:
E---------------------------------------------------------------------| 
B---------------------------------------------------------------------|
F—5555555555555555-------------------88888888666666665555555533334444-| x2
C------------------76666666666666666----------------------------------|


E------------------------------------------------------------------------| 
B------------------------------------------------------------------------|
F------------------------------------------------------------------------|
C--0-0-0-0-0-0-0-0-7-7-8-8-8-8-8-8-8-8------111------333-0-0/12-000/11---|
                                      (pause)  (pause) 


E-------------------------------------------------------------| 
B-------------------------------------------------------------|
F-------------------------------------------------------------|
C--5-5-5-5-4-4-7-7-8-8-8-8-8-8-8-8-------111-------333-000/12-|
                                  (pause)   (pause)







Chorus x2

E-------------------------------------------------------------------| 
B-------------------------------------------------------------------|
F-------------------1111111111111111------------------------33333333|
C--0000000000000000------------------555555554444444411111111-------|


Outro:
E-----------------------------------------------------------------| 
B-----------------------------------------------------------------|
F-------------------------------3------------------------------5--|
C—3200000000000-3200000000000------320000000000-320000000000------|


| /  slide up
| \  slide down
| h  hammer-on
| p  pull-off
| ~  vibrato
| +  harmonic
| x  Mute note
============================================================================
            
Submit corrections

↑ Back to top | Tablatures and chords for acoustic guitar and electric guitar, ukulele, drums are parodies/interpretations of the original songs. You may use it for private study, scholarship, research or language learning purposes only