Home » F » Friendly Fires »

Friendly Fires - Skeleton Boy Bass

Artists:  A B C D E F G H I J K L M N O P Q R S T U V W X Y Z # 

Skeleton Boy Bass

(ver. 2) Click to play this song!
Friendly Fires

sweet song.
the bridge has a lower octave 
but i was too lazy to tune down

Verse:4x
G-8---------8----------------6--------|
D--------------------4----------------|
A---66-6-6----66-6-6-----------44-4-4-|
E----------------------22-2-2---------|

Pre-Chorus:2x
G-8-8-8-8-8-8-8-8-------------------------|
D-----------------------------------------|
A--6-6-6-6-6-6-6-6--------44-4-4----------|
E------------------22-2-2--------2(slide)-|

Chorus:4x
G------------------------6-6-6-6-6-6-6-6-4-4-4-|
D----------------------------------------------|
A-9-9-9-9-9-9-9-9-8-8-8-4-4-4-4-4-4-4-4-2-2-2--|
E----------------------------------------------|

Verse:2x
Pre-Chorus:2x

Bridge:2x
G-----------------------------------------------------|
D-1-1-1-1-1------------3--8---1-1-1-1-1---11----------|
A--------------------4--6---------------9----9(slide)-|
E-----------2(slide)----------------------------------|

Chorus:4x
            
Submit corrections

↑ Back to top | Tablatures and chords for acoustic guitar and electric guitar, ukulele, drums are parodies/interpretations of the original songs. You may use it for private study, scholarship, research or language learning purposes only