Home » F » Friendly Fires »

Friendly Fires - Skeleton Boy Bass

Artists:  A B C D E F G H I J K L M N O P Q R S T U V W X Y Z # 

Skeleton Boy Bass

(ver. 1) Click to play this song!
Friendly Fires
I dont mind taking requests for bass tabs and will try my best to get 
them accurate, especially if the song is good and worth doing!
Just leave a message on my profile wall.

-----------------------------------------------------------------------------
-----------------------------------------------------------------------------


Tuning: Standard

*Note: This tab is for the album version of Skeleton Boy. Ive just realised the song on 
EP and in the music video is a bit different.*

Awesome band, awesome song.
I am 99.9% sure the verse and chorus are correct.
I havent shown the timing well, just remember the change between the G and A
and the D and E strings is very quick.

Intro/Verse 1

G|-8-----------8-----------------------6------------------|
D|-------------------------4------------------------------|
A|--6-6--6-6----6-6--6-6----------------4-4--4-4----------| X 4
E|--------------------------2-2--2-2----------------------|

Verse 2

G|--8-8-8-8-8-8-8-8-8-8-----------------------------------|
D|--------------------------------------------------------|
A|-6-6-6-6-6-6-6-6-6-6-6-------------4-4--4-4////---------|
E|------------------------2-2--2-2------------------------|

G|--8-8-8-8-8-8-8-8-8-8-----------------------------------|
D|--------------------------------------------------------|
A|-6-6-6-6-6-6-6-6-6-6-6----------------------------------|
E|------------------------2-2--2-2------------------------|

Chorus

G|---------------------------6-6-6-6-6-6-6-4-4-4----------|
D|--4-4-4-4-4-4-4-3-3-3-----------------------------------|
A|----------------------////4-4-4-4-4-4-4-2-2-2-----------| X 4
E|-2-2-2-2-2-2-2-1-1-1------------------------------------|

Verse 3

G|-8-----------8-----------------------6------------------|
D|-------------------------4------------------------------|
A|--6-6--6-6----6-6--6-6----------------4-4--4-4----------| X 2
E|--------------------------2-2--2-2----------------------|

Verse 4

G|--8-8-8-8-8-8-8-8-8-8-----------------------------------|
D|--------------------------------------------------------|
A|-6-6-6-6-6-6-6-6-6-6-6-------------4-4--4-4////---------|
E|------------------------2-2--2-2------------------------|

G|--8-8-8-8-8-8-8-8-8-8-----------------------------------|
D|--------------------------------------------------------|
A|-6-6-6-6-6-6-6-6-6-6-6----------------------------------|
E|------------------------2-2--2-2------------------------|

Bridge

G|--------------------8-6---------------------------------|
D|---------------------6----------------------8-----------|
A|-6-6-6-6-6//-------6----6-6-6-6-6//-------6---6\\-------| X 2
E|---------------(6?)----------------------(6?)-----------|

G|--------------------------------------------------------|
D|-----------------//13>>>----13--13--13--13--------------|
A|-6>>>----6>>>------------------------------ ect. -------|
E|--------------------------11--11--11--11----------------|

Chorus

G|---------------------------6-6-6-6-6-6-6-4-4-4----------|
D|--4-4-4-4-4-4-4-3-3-3-----------------------------------|
A|----------------------////4-4-4-4-4-4-4-2-2-2-----------| X 4
E|-2-2-2-2-2-2-2-1-1-1------------------------------------|

Outro

G|---------------------------6----------------------------|
D|--------------------------------------------------------|
A|--------------------------4-4---------------------------| X 4
E|-2-2-2---------1-1-1------------------------------------|

| /  slide up
| \  slide down
| >  hold
===============================================================================
            
Submit corrections

↑ Back to top | Tablatures and chords for acoustic guitar and electric guitar, ukulele, drums are parodies/interpretations of the original songs. You may use it for private study, scholarship, research or language learning purposes only