Home » F » Friendly Fires »

Friendly Fires - On Board Bass

Artists:  A B C D E F G H I J K L M N O P Q R S T U V W X Y Z # 

On Board Bass

(ver. 2) Click to play this song!
Friendly Fires
Intro:

Gb|----------|
Db|----------|
Ab|----------| X9
Eb|2-2--2-2--|

Chorus:

Gb|----------------------------------------------|
Db|----------------------------------------------|
Ab|----------------------------------------------|
Eb|2-2--2-2---2-2--2-2---2-2--2-2---2-2h4/5-2----|

Gb|----------------------------------------------|
Db|----------------------------------------------|
Ab|----------------------------------------------|
Eb|2-2--2-2---2-2--2-2---2-2--2-2---0h4/5-4-2----|

Verse:

Gb|----------|
Db|----------|
Ab|----------| X7 
Eb|2-2--2-2--|

Pre-Chorus:  NO BASS

Chorus:

Gb|----------------------------------------------|
Db|----------------------------------------------|
Ab|----------------------------------------------|
Eb|2-2--2-2---2-2--2-2---2-2--2-2---2-2h4/5-2----|

Gb|----------------------------------------------|
Db|----------------------------------------------|
Ab|----------------------------------------------|
Eb|2-2--2-2---2-2--2-2---2-2--2-2---0h4/5-4-2----|

Bridge:  NO BASS

Verse:

Gb|----------|
Db|----------|
Ab|2-2--2-2--|  X16
Eb|----------|

Pre-Chorus:  NO BASS

Chorus:

Gb|----------------------------------------------|
Db|----------------------------------------------|
Ab|----------------------------------------------|
Eb|2-2--2-2---2-2--2-2---2-2--2-2---2-2h4/5-2----|

Gb|----------------------------------------------|
Db|----------------------------------------------|
Ab|----------------------------------------------|
Eb|2-2--2-2---2-2--2-2---2-2--2-2---0h4/5-4-2----|

Outro:

Gb|----------|
Db|----------|
Ab|----------| X16
Eb|2-2--1-1--|
            
Submit corrections

↑ Back to top | Tablatures and chords for acoustic guitar and electric guitar, ukulele, drums are parodies/interpretations of the original songs. You may use it for private study, scholarship, research or language learning purposes only