Home » F » Friendly Fires »

Friendly Fires - On Board Bass

Artists:  A B C D E F G H I J K L M N O P Q R S T U V W X Y Z # 

On Board Bass

(ver. 1) Click to play this song!
Friendly Fires
This song is pretty easy to play and is the same all the way through pretty much.

Verse:

G-------------|
D-------------|
A-------------|
E--0-0---0-0--|

Chorus:

G------------------|
D--------------5---|
A------------------|
E--0-0---0-2/3---3-|

At 1:33 the Verse riff changes a tiny bit:

G-------------|
D-------------|
A--7-7---7-7--|
E-------------|

And thats it :)
Enjoy!
            
Submit corrections

↑ Back to top | Tablatures and chords for acoustic guitar and electric guitar, ukulele, drums are parodies/interpretations of the original songs. You may use it for private study, scholarship, research or language learning purposes only