» » »

Free - Wishing Well Tabs

Artists:  A B C D E F G H I J K L M N O P Q R S T U V W X Y Z # 

Wishing Well Tabs

(ver. 3) Click to play this song!
Free
 Rating:
4.6/5 (9 votes)

 Wishing Well lessons Tabs too difficult? Try these video lessons and learn fast
 
                Wishing Well By Free

Intro
e|-------------------------------------------------------------------|
B|-------------------------------------------------------------------|
G|---9---7---------------------------------9---7---------------------|
D|---9---7---9---7------9---7---5---2------9---7---9---7----------5--|
A|---7---5---9---7------7---7---5---2------7---5---9---7----------5--|
E|-----------7---5------7---5---3---0--------------7---5----------3--|

e|--------------------------------------------------------------------|
B|--------------------------------------------------------------------|
G|--------------------------------------------------------------------|
D|---2----------------------------------------------------------------|
A|---2--ring----------------------------------------------------------|
E|---0----------------------------------------------------------------|
                   Take off your hat,   kick off your shoes

e|-------------------------------------------------------------------|
B|-----------------------2-------------------------------------------|
G|----------0---------3-----3---1------------------------------------|
D|-------2-----2---0------------2------------------------------------|
A|----3-------------------------2------------------------------------|
E|------------------------------0------------------------------------|
    I know you ain't goin anywhere       Run round the town,

e|--------------------------------------------------------------------|
B|-----------------------------------------------3--------------------|
G|----------------------------------0---------2-----2---1-------------|
D|-------------------------------2-----2---0------------2-------------|
A|----------------------------3-------------------------2-------------|
E|------------------------------------------------------0-------------|
    singing your blues,       i know you ain't goin anywhere

Chorus:
e|-----------------------------------------------------------------------|
B|---------------------3-------------------------------------------------|
G|--------0---------2-----2--1--1--1--1----------------------------------|
D|-----2-----2---0-----------2--2--2--2----------------------------------|
A|--3------------------------2--2--2--2----------------------------------|
E|---------------------------0--0--0--0----------------------------------|
   You've always been a good friend of mine,
e|-----------------------------------------------------------------------|
B|---------------------3-------------------------------------------------|
G|--------0---------2-----2--1--1--1--1----------------------------------|
D|-----2-----2---0-----------2--2--2--2----------------------------------|
A|--3------------------------2--2--2--2----------------------------------|
E|---------------------------0--0--0--0----------------------------------|
   But you've always said farewell

e|-----------------------------------------------------------------------|
B|---------------------3-------------------------------------------------|
G|--------0---------2-----2--1--1--1--1----------------------------------|
D|-----2-----2---0-----------2--2--2--2----------------------------------|
A|--3------------------------2--2--2--2----------------------------------|
E|---------------------------0--0--0--0----------------------------------|
    And the only time that your satisfied

e|------------------------------------------------------------------|
B|------------------------------------------------------------------|
G|---5------------------7-------------------------------------------|
D|---5------------------7-------------------------------------------|
A|---3------------------5-------------------------------------------|
E|------------------------------------------------------------------|
    is with your feet   in the wishing

e|-------------------------------------------------------------------|
B|-------------------------------------------------------------------|
G|---9---7---------------------------------9---7---------------------|
D|---9---7---9---7------9---7---5---2------9---7---9---7----------5--|
A|---7---5---9---7------7---7---5---2------7---5---9---7----------5--|
E|-----------7---5------7---5---3---0--------------7---5----------3--|
   Well

Verse:
e|--------------------------------------------------------------------|
B|--------------------------------------------------------------------|
G|--------------------------------------------------------------------|
D|---2----------------------------------------------------------------|
A|---2--ring----------------------------------------------------------|
E|---0----------------------------------------------------------------|
               Throw down your gun, you might shoot yourself

e|-------------------------------------------------------------------|
B|-----------------------2-------------------------------------------|
G|----------0---------3-----3---1------------------------------------|
D|-------2-----2---0------------2------------------------------------|
A|----3-------------------------2------------------------------------|
E|------------------------------0------------------------------------|
   Or's that what you're tryin to do?     Put up a fight

e|--------------------------------------------------------------------|
B|-----------------------------------------------3--------------------|
G|----------------------------------0---------2-----2---1-------------|
D|-------------------------------2-----2---0------------2-------------|
A|----------------------------3-------------------------2-------------|
E|------------------------------------------------------0-------------|
    You believe to be right,  And someday the sun will shine through

Chorus:
e|-----------------------------------------------------------------------|
B|---------------------3-------------------------------------------------|
G|--------0---------2-----2--1--1--1--1----------------------------------|
D|-----2-----2---0-----------2--2--2--2----------------------------------|
A|--3------------------------2--2--2--2----------------------------------|
E|---------------------------0--0--0--0----------------------------------|
   You've always got, somethin to hide,
e|-----------------------------------------------------------------------|
B|---------------------3-------------------------------------------------|
G|--------0---------2-----2--1--1--1--1----------------------------------|
D|-----2-----2---0-----------2--2--2--2----------------------------------|
A|--3------------------------2--2--2--2----------------------------------|
E|---------------------------0--0--0--0----------------------------------|
   somethin you just can't tell
e|-----------------------------------------------------------------------|
B|---------------------3-------------------------------------------------|
G|--------0---------2-----2--1--1--1--1----------------------------------|
D|-----2-----2---0-----------2--2--2--2----------------------------------|
A|--3------------------------2--2--2--2----------------------------------|
E|---------------------------0--0--0--0----------------------------------|
    And the only time that your satisfied

e|------------------------------------------------------------------|
B|------------------------------------------------------------------|
G|---5------------------7-------------------------------------------|
D|---5------------------7-------------------------------------------|
A|---3------------------5-------------------------------------------|
E|------------------------------------------------------------------|
    is with your feet   in the wishing

e|-------------------------------------------------------------------|
B|-------------------------------------------------------------------|
G|---9---7---------------------------------9---7---------------------|
D|---9---7---9---7------9---7---5---2------9---7---9---7----------7--|
A|---7---5---9---7------7---7---5---2------7---5---9---7----------7--|
E|-----------7---5------7---5---3---0--------------7---5----------5--|
    Well

e|--------------------------------------------------------------------------|
B|--------------------------------------------------------------------------|
G|--------------------------------------------------------------------------|
D|---3-------------5-----------7---------3------5---------7-----------------|
A|---3-------------5-----------7---------3------5---------7-----------------|
E|---1-------------3-----------5---------1------3---------5-----------------|
     But i know what you're wishing for (love in a peaceful world)

e|-----------------------------------------------------------------|
B|-----------------------------------------------------------------|
G|-----------------------------------------------------------------|
D|--------3-------5-----------7---------------3------5---------7---|
A|--------3-------5-----------7---------------3------5---------7---|
E|--------1-------3-----------5---------------1------3---------5---|
Oh yeah, (love in a peaceful world) oh yeah, (love in a peaceful world)

Solo (played in background)
e|----------------------------------------------------------------------|
B|----------------------------------------------------------------------|
G|---------------------------------------------------------------   X 8-|
D|---3-3-3-3---5-5-5-5---7-7-7-7-7-7-7-7--------------------------------|
A|---3-3-3-3---5-5-5-5---7-7-7-7-7-7-7-7--------------------------------|
E|---1-1-1-1---3-3-3-3---5-5-5-5-5-5-5-5--------------------------------|

Chorus:
e|-----------------------------------------------------------------------|
B|---------------------3-------------------------------------------------|
G|--------0---------2-----2--1--1--1--1----------------------------------|
D|-----2-----2---0-----------2--2--2--2----------------------------------|
A|--3------------------------2--2--2--2----------------------------------|
E|---------------------------0--0--0--0----------------------------------|
   You've always been a good friend of mine,
e|-----------------------------------------------------------------------|
B|---------------------3-------------------------------------------------|
G|--------0---------2-----2--1--1--1--1----------------------------------|
D|-----2-----2---0-----------2--2--2--2----------------------------------|
A|--3------------------------2--2--2--2----------------------------------|
E|---------------------------0--0--0--0----------------------------------|
   But you've always said farewell

e|-----------------------------------------------------------------------|
B|---------------------3-------------------------------------------------|
G|--------0---------2-----2--1--1--1--1----------------------------------|
D|-----2-----2---0-----------2--2--2--2----------------------------------|
A|--3------------------------2--2--2--2----------------------------------|
E|---------------------------0--0--0--0----------------------------------|
    And the only time that your satisfied

e|------------------------------------------------------------------|
B|------------------------------------------------------------------|
G|---5------------------7-------------------------------------------|
D|---5------------------7-------------------------------------------|
A|---3------------------5-------------------------------------------|
E|------------------------------------------------------------------|
    is with your feet   in the wishing

e|------------------------------------------------------------------------|
B|------------------------------------------------------------------------|
G|---9---7---------------------------------9---7--------------------------|
D|---9---7---9---7------9---7---5---2------9---7---9---7----9---7---5---2-|
A|---7---5---9---7------7---7---5---2------7---5---9---7----7---7---5---2-|
E|-----------7---5------7---5---3---0--------------7---5----7---5---3---0-|
   Well

e|--------------------------------------------------------------|
B|--------------------------------------------------------------|
G|--------------------------------------------------------------|
D|--------------------------------------------------------------| X 14 To end
A|---10h12-10---------------------------------------------------|
E|-------------12--10----10h12-10-8--5--------------------------|

I think this is how its played
            
Submit corrections


        Wishing Well lessons Hard to play? Try these video lessons and learn fast Wishing Well lessons
        
↑ Back to top | Tablatures and chords for acoustic guitar and electric guitar, ukulele, drums are parodies/interpretations of the original songs. You may use it for private study, scholarship, research or language learning purposes only