» » »

Free - Stealer Bass

Artists:  A B C D E F G H I J K L M N O P Q R S T U V W X Y Z # 

Stealer Bass

(ver. 1) Click to play this song!
Free
 Rating:
4/5 (4 votes)

 Stealer lessons Tabs too difficult? Try these video lessons and learn fast
 
                Artist – Free
Song – The Stealer

It’s a really easy song, and if you get the timing right its easy to play!

Standard tuning

Intro/verse 1

G:--------------------------------------
D:---------12---------------------------   Repeat 14x 
A:----12h14---12\\\\\\\\\0-----------0--
E:---------------------------2-0---5----

Then repeat until “steal your love” ………………………

Bridge

I think the bridge goes something like this?
G:---------------------------------------------------
D:---------------------------------------------------
A:--------------------------------------------------- repeat x???
E:----2h5-5------2h5-5------2h5-5--------------------

Then back into verse 1. 

Good luck and happy playing! :)
            
Submit corrections


        Stealer lessons Hard to play? Try these video lessons and learn fast Stealer lessons
        
↑ Back to top | Tablatures and chords for acoustic guitar and electric guitar, ukulele, drums are parodies/interpretations of the original songs. You may use it for private study, scholarship, research or language learning purposes only