» » »

Free - Wishing Well Bass

Artists:  A B C D E F G H I J K L M N O P Q R S T U V W X Y Z # 

Wishing Well Bass

(ver. 1) Click to play this song!
Free
 Rating:
4/5 (4 votes)

 Wishing Well lessons Tabs too difficult? Try these video lessons and learn fast
 
                


Intro: (0:00)

G|-------------------------------------------------------------------------|
D|--2-0-------------------2-0--------------14-14-14-14-14-14-14-14\--------|
A|------2-0---2-0-------------2-0------------------------------------------|
E|----------------2-0----------------2*------------------------------------|

Verse: (0:15)

G|-------------------------------------------------------------------------|
D|----------------------3-5------5-7---------------------------------------|
A|--------------------3-----3--5-----5-7-7-7-7-----------------------------|
E|--0-0-0-0-0-0-0-0--------------------------------------------------------|

G|-------------------------------------------------------------------------|
D|----------------------3-5------5-7---------------------------------------|
A|--------------------3-----3--5-----5-7-7-7-7-----------------------------|
E|--0-0-0-0-0-0-0-0--------------------------------------------------------|

Chorus: (0:30)

G|----5-----7-----------------5-----7--------------5-----7-9---------------|
D|--5-----7-----------------5-----7--------------5-----7-----9-------------|
A|3-----5------7-7-7---7--3-----5-----7-7-7-7--3-----5---------7--7-----3-5|
E|-------------------7----------------------------------------------7-0----|

Post-Chorus: (0:44)

G|-------------------------------------------------------------------------|
D|--2-0-------------------2-0--------------14-14-14-14-14-14-14-14\--------|
A|------2-0---2-0-------------2-0------------------------------------------|
E|----------------2-0----------------2*------------------------------------|

Verse: (0:58)

G|-------------------------------------------------------------------------|
D|----------------------3-5------5-7---------------------------------------|
A|--------------------3-----3--5-----5-7-7-7-7-----------------------------|
E|--0-0-0-0-0-0-0-0--------------------------------------------------------|

G|-------------------------------------------------------------------------|
D|----------------------3-5------5-7---------------------------------------|
A|--------------------3-----3--5-----5-7-7-7-7-----------------------------|
E|--0-0-0-0-0-0-0-0--------------------------------------------------------|


Chorus: (1:13)

G|----5-----7-----------------5-----7-------9----------5-----7--9----------|
D|--5-----7-----------------5-----7-----------9------5-----7------9--------|
A|3-----5------7-7-7---7--3-----5-----7-7-7-----7--3-----5----------7-7----|
E|-------------------7--------------------------------------------------7-0|

G|-------------------------------------------------------------------------|
D|-------------------------------------------------------------------------|
A|-3--5--------------------------------------------------------------------|
E|-------------------------------------------------------------------------|

Post-Chorus: (1:28)

G|-------------------------------------------------------------------------|
D|-2-0------------------2-0------------------------------------------------|
A|-----2-0----2-0-----------2-0--------------------------------------------|
E|----------------2-0------------------------------------------------------|

Bridge/Solo: (1:34, bass comes in at 1:53)

Bridge is non-bass, then the bass comes in before the solo. Though I have no
real idea if it's just root notes being played or not, so i'll have a fiddle.

G|--------2-------2-------------2-------2--------5-----7------2-------2----|
D|------2---2---2---2---------2---2---2---2----5-----7------2---2---2---2--|
A|----0-------0-------------0-------0--------3-----5------0-------0-------3|
E|1-3-------------------1-3------------------------------------------------|

G|---5-----7---------------------------------------------------------------|
D|-5-----7-----------------------------------------------------------------|
A|-----5-----7-------------------------------------------------------------|
E|-------------------------------------------------------------------------|

G|-------------------------------------------------------------------------|
D|-------------------------------------------------------------------------|
A|--3-3-3-3-3-3-3-3-3-3-3-3-3-3-3-3-5-5-5-5-5-5-5-5-5-5-5-5-5-5-5-5--------|
E|-------------------------------------------------------------------------|

G|-------------------------------------------------------------------------|
D|--3-3-3-3-3-3-3-3-5-5-5-5-5-5-5-5-7-7-7-7-7-7-7-7-7-7-7-7-7-7-7-7--------|
A|-------------------------------------------------------------------------|
E|-------------------------------------------------------------------------|

Chorus: (2:24)

G|-------------------------------------------------------------------------|
D|----------7---7---3-----5---5-------7---7--3-----5---5------7---7--------|
A|------------7-------------5-----------7------------5----------7----------|
E|-1-3--5-5-----------1-1--------5-5-----------1-1--------5-5--------------|

Outro: (2:39)

G|----------------------------------------------------|
D|-2-0------------------------------------------------|
A|-----2-0---2-0--------------------------------------|  Repeated, lots.
E|----------------2-0---------------------------------|



If you want any more tabs by this artist then or you have any corrections for this
            
Submit corrections


        Wishing Well lessons Hard to play? Try these video lessons and learn fast Wishing Well lessons
        
↑ Back to top | Tablatures and chords for acoustic guitar and electric guitar, ukulele, drums are parodies/interpretations of the original songs. You may use it for private study, scholarship, research or language learning purposes only