» » »

Free - Be My Friend Live Tabs

Artists:  A B C D E F G H I J K L M N O P Q R S T U V W X Y Z # 

Be My Friend Live Tabs

(ver. 3) Click to play this song!
Free
 Rating:
3.2/5 (29 votes)

 Be My Friend Live  lessons Tabs too difficult? Try these video lessons and learn fast
 
                Tuning: EADGBe

E|----------------|-------------------|----------------------------|6------------------------|
B|----------------|-------------------|----------------------------|--9--------------6-------|
G|6-8/10~~--8/10~~|8~--6h8p6-5-6-6/8~~|8/10\8~--8-10-8\6\5--5h6p5\4|----8b10-8-6h8~----6-----|
D|----------------|-------------------|----------------------------|---------------------8-8~|
A|----------------|-------------------|----------------------------|-------------------------|
E|----------------|-------------------|----------------------------|-------------------------|

E|----------------------|--------------------------------|----------9---------6----|
B|6---------------------|6-6------6-6------6-6-----------|6----9b11---9b11~~----9-6|
G|6-----------6---6-8b10|----8b10-----8b10-----8br10-6-8~|-------------------------|
D|--8-6-8-8~----8-------|--------------------------------|--8----------------------|
A|----------------------|--------------------------------|-------------------------|
E|----------------------|--------------------------------|-------------------------|

E|---------------|--------------|----------------------------------|---------------------------|
B|8-8----6-6--6-6|--------------|----------------------------------|-------6-6------------6----|
G|8-8p6--6-6--6-6|6-6--------6--|6/8/10\8\6---6/8/10\8\6---6/8/10\8|6-8~~--6-6--------6-----8-6|
D|---------------|6-6h8-8~~----8|-----------8------------8---------|-----------8-6-8----8------|
A|---------------|--------------|----------------------------------|---------------------------|
E|---------------|--------------|----------------------------------|---------------------------|

E|-------------------------|-----------------6---------|
B|-----9----------6--------|-------------------9-9-----|
G|8b10---8b10~~~----8-6h8~~|8-6b------6---6------8b10~~|
D|-------------------------|-----8~~--6h8-6------------|
A|-------------------------|---------------------------|
E|-------------------------|---------------------------|            
Submit corrections


        Be My Friend Live  lessons Hard to play? Try these video lessons and learn fast Be My Friend Live  lessons
        
↑ Back to top | Tablatures and chords for acoustic guitar and electric guitar, ukulele, drums are parodies/interpretations of the original songs. You may use it for private study, scholarship, research or language learning purposes only