Home » F » Free »

Free - All Right Now Bass

Artists:  A B C D E F G H I J K L M N O P Q R S T U V W X Y Z # 

All Right Now Bass

(ver. 2) Click to play this song!
Free
 [Intro]         [1st Verse]
 Q=124
 4/4
  Gtr I
   Wx12           Wx15          Q.     E E  Q.
G|-------------||-------------|------------14\---||
D|-------------||-------------|------/16---------||
A|-------------||-------------|-9----------------||
E|-------------||-------------|------------------||


 [Chorus]
   E E E E E E E E   Q.   E +H       Q  E E E  E E E   E E E E E E E E
G|-----------------|---------------|-----------------|------------------|
D|-----------------|------5-(5)----|----3-4----------|------------------|
A|-0-----0---------|---------------|--------5\-------|-0-0---4----------|
E|---0-2-----0-2---|---------------|-----------0-2-3-|-----------0-2-3--|


                                                      [Interlude]
   E E E E E E E E   Q.   E +H       Q  E E E  E E E    W
G|-----------------|---------------|-----------------||------|
D|-------7-------7-|------5-(5)----|----3-4----------||------|
A|---7-9-----7-9---|---------------|--------5\-------||-0----|
E|-----------------|---------------|-----------0-2-0-||------|


   Wx8          H      E  Q.     W          H      E  Q.
G|------------|----------14----|----------|----------14\----||
D|------------|------/16-------|----------|------/16--------||
A|------------|----------------|----------|-----------------||
E|------------|----------------|----------|-----------------||


 [2nd Verse]
   Q   H    E E   E E H.        S S S S E E S S S S E E   Q   H.
G|--------------|-------------|-------------------------|-----------|
D|-7\-----------|-------------|-------------------------|-----------|
A|----------5---|-------------|-5-5---5-5---------------|-----------|
E|--------------|-5-5---------|-------------2-2---2-3-4-|-5\--------|


   Q   H    E E   E E H.        S S S S E E S S S S E E   Q  H.
G|--------------|-------------|-------------------------|----------|
D|--------------|-------------|-------------------------|----------|
A|----------5-3-|-------------|-5-5---5-5---------------|----------|
E|-5\-----------|-5-----------|-------------2-2---2-3-4-|-5--------|


   Q   H    E E   E E H.        S S S S E E S S S S E E   Q   H.
G|--------------|-------------|-------------------------|-----------|
D|--------------|-------------|-------------------------|-----------|
A|----------5-3-|-------------|-5-5---5-5---------------|-----------|
E|-5\-----------|-5-----------|-------------2-2---2-3---|-5\--------|


   Q   H    E E   E E H.        W          Q   H.
G|--------------|-------------|----------|----18\----||
D|--------------|-------------|----------|-----------||
A|----------5---|-------------|----------|-----------||
E|-5\---------2-|-5-5---------|----------|-----------||


 [Chorus]
   E E E E E E E E   Q.   E +H       Q  E E  E E E E   E E E E E E E E
G|-----------------|---------------|-----------------|------------------|
D|-----------------|------5-(5)----|----3-4\---------|------------------|
A|-0-----0---------|---------------|-----------------|-0-0---4---5---7--|
E|---0-2-----0-2---|---------------|-----------0-2-3-|------------------|


   E E E E E E Q     Q.   E +H       Q  E E E E E E   W          W
G|-----------------|---------------|----------------|----------|------||
D|-7-------7-------|------5-(5)----|----3-4---------|----------|------||
A|-----7-9---7-9\--|---------------|--------5-------|----------|------||
E|-----------------|---------------|----------0-2-3-|-5--------|------||


 [Guitar Solo]
   Wx8          E S S E E E E E E    E E  E E  E E  E E   E S S E E E E E E
G|------------|-------------------|------19--------19---|--------------------|
D|------------|-------------------|-17--------16--------|--------------------|
A|------------|-0---0-----0-0-----|----0----0----0----0-|-0---0-----0-0------|
E|------------|-------0-2-----2-0-|---------------------|-------0-2-----2-0--|


    E E  E E  E E  Q     E S S E E E E E E
G|------19--------19\--|-------------------|
D|-17--------16--------|-------------------|
A|----0----0----0------|-0---0-----0-0-----|
E|---------------------|-------0-2-----2-0-|


    E E  E E  E E  E E   E S S E E E E E E
G|------19--------19---|--------------------|
D|-17--------16--------|--------------------|
A|----0----0----0----0-|-0---0-----0-0------|
E|---------------------|-------0-2-----2-0--|


    E E  E E  E E  Q     E S S E E E E E E
G|------19--------19\--|-------------------|
D|-17--------16--------|-------------------|
A|----0----0----0------|-0---0-----0-0-----|
E|---------------------|-------0-2-----2-0-|


    E E  E E  E E  E E   E S S E E E E E E
G|------19--------19---|--------------------|
D|-17--------16--------|--------------------|
A|----0----0----0----0-|-0---0-----0-0------|
E|---------------------|-------0-2-----2-0--|


    E E  E E  E E  E E   E S S E E E E E E
G|------19--------19---|-------------------|
D|-17--------16--------|-------------------|
A|----0----0----0----0-|-0---0-----0-0-----|
E|---------------------|-------0-2-----2-0-|


    E E  E E  E E  E E   E S S E E E E E E
G|------19--------19---|--------------------|
D|-17--------16--------|--------------------|
A|----0----0----0----0-|-0---0-----0-0------|
E|---------------------|-------0-2-----2-0--|


   E E  E E  E E  E E   E S S E E E E E E
G|-----19--------19---|-------------------|
D|----------16--------|-------------------|
A|-0-0----0----0----0-|-0---0-----0-0-----|
E|--------------------|-------0-2-----2-0-|


    E E  E E  E E  Q     E S S E E E E E E
G|------19--------19\--|--------------------|
D|-17--------16--------|--------------------|
A|----0----0----0------|-0---0-----0-0------|
E|---------------------|-------0-2-----2-0--|


    E  E  E E  E E  E E   E S S E E E E E E
G|-------19--------19---|-------------------|
D|-15-16------16--------|-------------------|
A|----------0----0----0-|-0---0-----0-0-----|
E|----------------------|-------0-2-----2-0-|


    S  S E  E E  E E  E E   E S S E E E E E E
G|---------19--------19---|-------------------|
D|-17-17--------16--------|-------------------|
A|-------0----0----0----0-|-0---0-----0-0-----|
E|------------------------|-------0-2-----2-0-|


    S  S E  E E  E E  Q     S E S E E E E E E
G|---------19--------19\--|-------------------|
D|-17-17--------16--------|-------------------|
A|-------0----0----0------|-0-0-0-----0-0-----|
E|------------------------|-------0-2-----2-0-|


    E E  E E  E E  E E   E S S E E E E E E
G|------19--------19---|-------------------|
D|-17--------16--------|-------------------|
A|----0----0----0----0-|-0---0-----0-0-----|
E|---------------------|-------0-2-----2-0-|


    E E  E E  E E  Q     E S S E E E E E E
G|------19--------19\--|-------------------|
D|-17--------16--------|-------------------|
A|----0----0----0------|-0---0-----0-0-----|
E|---------------------|-------0-2-----2-0-|


    E E  E E  E E  E E   E E E E E E E E
G|------19--------19---|-----------------|
D|-17--------16--------|---0-------------|
A|----0----0----0----0-|-0-------0-0-----|
E|---------------------|-----0-2-----2-0-|


    E E  E E  E E  Q     E S S E E E E E E
G|------19--------19\--|-------------------|
D|-17--------16--------|-------------------|
A|----0----0----0------|-0---0-----0-0-----|
E|---------------------|-------0-2-----2-0-|


    E E  E E  E E Q    W          +Q   H.
G|------19-----------|----------|------------||
D|-17--------16------|----------|------------||
A|----0----0----0-0--|----------|------------||
E|-------------------|-0--------|-(0)--------||


 [Interlude]
   Q  H.        W          W          Q   H.
G|------------|----------|----------|----18\----|
D|------------|----------|----------|-----------|
A|------------|----------|----------|-----------|
E|-5----------|----------|----------|-----------|


   W          W          Q   Q  Q   Q    E  E H.
G|----------|----------|----12-----11--|-9\---------||
D|----------|----------|---------------|------------||
A|----------|----------|---------------|------------||
E|----------|----------|---------------|------------||


 [3rd Verse]
   Wx15          H    E E E E
G|-------------|--------------||
D|-------------|--------------||
A|-------------|--------------||
E|-------------|------2-2-3-4-||


 [Chorus]
   E E E E E E E E   Q.   E +H       Q  E E E E E E   E E E E E E E E
G|-----------------|---------------|----------------|------------------|
D|-----------------|------5-(5)----|----3-4---------|------------------|
A|-0-----0---------|---------------|--------5-------|-0-0---4---5---7--|
E|---0-2-----0-2---|---------------|----------0-2-3-|------------------|


   E E E E E E E E   Q.   E +H       Q  E E E  E E E   W
G|-----------------|---------------|-----------------|------|
D|-7-------7-------|------5-(5)----|----3-4----------|------|
A|-----7-9-----7-9-|---------------|--------5\-------|------|
E|-----------------|---------------|-----------0-2-0-|-5----|


   Q  a  H.        E E E E E E E E   Q.   E +H       Q  E E E  E E E
G|----9h11-------|-----------------|---------------|-----------------|
D|---------------|-----------------|------5-(5)----|----3-4----------|
A|---------------|-0-------0-------|---------------|--------5\-------|
E|---------------|-----0-2-----0-2-|---------------|-----------0-2-3-|


   E E E E E E E E   E E E E E E E E   Q.   E +H       Q  E E E  E E E
G|-----------------|-----------------|---------------|------------------||
D|-----------------|-7-------7-------|------5-(5)----|----3-4-----------||
A|-0-0---4---5---7-|-----7-9-----7-9-|---------------|--------5\--------||
E|-----------------|-----------------|---------------|-----------0-2-0--||


 [Outro]
   W          Q.   E E E Q    +Q   E E E E E E   E E E E E E E E
G|----------|---------------|------------------|------------------|
D|----------|------7-----7--|-(7)----7---5---7-|-------7----------|
A|----------|----------9----|------------------|---9-------9---7--|
E|-5--------|---------------|------------------|------------------|


   Q  E E E E Q    +Q.   E E E E E   Q.   E E E E E   E E E E E E E E
G|---------------|-----------------|----------------|------------------|
D|------------7--|-(7)---5---------|------7---5-----|------------------|
A|------4---7----|-----------7-5-4-|--------------7-|---5---4----------|
E|-5-------------|-----------------|----------------|-----------5-3-4--|


   Q.   E E E Q    Q.   E E E Q    E E  E  E  +E  Q  E       +W
G|---------------|---------------|---9-11-12-(12)----9tr11-|-(9tr11)----|
D|------7-----7--|------7---5-7--|-------------------------|------------|
A|----------9----|---------------|-------------------------|------------|
E|-5-------------|---------------|-------------------------|------------|


   W          Q  H.           E  Q   E  +E   Q   E
G|----------|----9tr11------|---14--11-(11)-14--11-|
D|----------|---------------|----------------------|
A|----------|---------------|----------------------|
E|----------|---------------|----------------------|


    +H      H      H      E  E  E  E    a  Q   H.
G|-(11)----------|----------14-16-19-|-17h18\--------*|
D|---------10----|------/16----------|---------------*|
A|---------------|-0-----------------|---------------*|
E|---------------|-------------------|---------------*|

            
Submit corrections

↑ Back to top | Tablatures and chords for acoustic guitar and electric guitar, ukulele, drums are parodies/interpretations of the original songs. You may use it for private study, scholarship, research or language learning purposes only