» » »

Franz Ferdinand - Treason Animals Tabs

Artists:  A B C D E F G H I J K L M N O P Q R S T U V W X Y Z # 

Treason Animals Tabs

(ver. 1) Click to play this song!
Franz Ferdinand
 Rating:
4/5 (4 votes)

 Treason Animals lessons Tabs too difficult? Try these video lessons and learn fast
 
                -------------------------------------------------------------------------------
                             TREASON! ANIMALS - Franz Ferdinand
-------------------------------------------------------------------------------


Riff 1 (corrected by JackJJW) :

e|--------------------------|
B|--2-2-2-4-2---------------|
G|-----------2--4-4-2-2-----|
D|------------2---------2-4-|
A|--------------------------|
E|--------------------------|



Verse :


e|----------------------------------|
B|----------------------------------|
G|----------------------------------|
D|----------------------------------|
A|------4--4--4--4--4--4--4--4------|
E|------2--2--2--2--2--2--2--2------|

Hey friends, when will you get here?
Hey friends, I need to hear voices


e|------0---------2------|
B|------0---------4------|
G|------1---------4------|
D|------2---------4------|
A|------2----------------|
E|------0----------------|
      
     Don't care  what you talk about

e|----------------------------------|
B|----------------------------------|
G|----------------------------------|
D|----------------------------------|
A|------4--4--4--4--4--4--4--4------|
E|------2--2--2--2--2--2--2--2------|

 Hey friends I just need to hear voices
 Could you bring the manual?
 Bring me the manual

e|------0----------2------|
B|------0----------4------|
G|------1----------4------|
D|------2----------4------|
A|------2-----------------|
E|------0-----------------|
      Something has really really gone wrong

e|----2--2--2--2--2--2--2--2--5--5--5--5--7--7--7--7--|
B|----2--2--2--2--2--2--2--2--5--5--5--5--7--7--7--7--|
G|----2--2--2--2--2--2--2--2--6--6--6--6--8--8--8--8--|
D|----4--4--4--4--4--4--4--4--7--7--7--7--9--9--9--9--|
A|----4--4--4--4--4--4--4--4--7--7--7--7--9--9--9--9--|
E|----------------------------------------------------|
               Hi-yeah            ooooh yeaaaah


e|-----0------------------------|
B|-----0------------------------|
G|-----1---(let ring)-----------|
D|-----2------------------------|
A|-----2------------------------|
E|-----0------------------------|
    Something has really really gone wrong

Chorus :

e|----------------------------------------------------|
B|----------------------------------------------------|
G|----------------------------------------------------|
D|----------------4--4--4--4--6--6--6--6--6--6--6--6--|
A|----6--6--6--6--2--2--2--2--4--4--4--4--4--4--4--4--|
E|----4--4--4--4--------------------------------------|
                        I'm the king of the animals
             I'm the king of the trees and animals            

e|----------------------------------------------------------------------------0--0--2--2-|
B|----------------------------------------------------------------------------0--0--4--4-|
G|----------------------------------------------------------------------------1--1--4--4-|
D|----6--6--6--6--6--6--6--6--------------------------------------------------2--2--4--4-|
A|----4--4--4--4--4--4--4--4--6--6--6--6--6--6--6--6--5--5--5--5--5--5--5--5--2--2-------|
E|----------------------------4--4--4--4--4--4--4--4--3--3--3--3--3--3--3--3--0--0-------|
            I'm the king so   give me your crown      I'm an animal now give me your animal crown 



Ending part (listen to the song and you'll know what I mean by that) with F#m and 
G#m chords, ends with :

e|------0---------2----------------------2-------|
B|------0---------4----------------------2-------|
G|------1---------4----------------------2-------|
D|------2---------4----------------------4-------|
A|------2--------------------------------4-------|
E|------0----------------------------------------|
      Something has really really gone wrong


I'll post the adapted-to-guitar synth part played by Nick McCarthy later, if requested. Cheers!

Song structure :

Riff 1
Verse
Chorus
Riff 1
Verse
Chorus
'Ending'

************************************

| /   slide up
| \   slide down
| h   hammer-on
| p   pull-off
| ~   vibrato
| +   harmonic
| x   Mute note
| b   Bend
| pb  Pre-bend
| br  Bend release
| pbr Pre-bend release
| brb Bend release bend

************************************
            
Submit corrections


        Treason Animals lessons Hard to play? Try these video lessons and learn fast Treason Animals lessons
        
↑ Back to top | Tablatures and chords for acoustic guitar and electric guitar, ukulele, drums are parodies/interpretations of the original songs. You may use it for private study, scholarship, research or language learning purposes only