Home » F » Franz Ferdinand »

Franz Ferdinand - Love Illumination Chords

Artists:  A B C D E F G H I J K L M N O P Q R S T U V W X Y Z # 

Love Illumination Chords

(ver. 1) Click to play this song!
Franz Ferdinand
 Rating:
4/5 (4 votes)
                At the beginning, I knew only the chorus version of this song. A few weeks later, 
I've finally found few other segment of this song. I hope it sounds good! 

start of the song is:

e|--------------------------------------------------------------------------|
B|--------------------------------------------------------------------------|
G|--------------2-0-------------------2-0-------------------2-0-------------|
D|------------------2---------------------2---------------------0-2---------|
A|------0-1-2-----------------0-1-2-----------------0-1-2-3-----------------|
E|-0-3--------0----------0-3--------0-----------0-3-------------------------|

e|--------------------------------------------------------------------------|
B|--------------------------------------------------------------------------|
G|-------------2-0------------------2-0------------------2-0----------------|
D|-----------------2--------0-1-2-------2--------------------0-2------------|
A|---3-2-0---0----------0-3----------------------0-1-2----------------------|
E|-0-------3----------------------0----------0-3-------0--------------------|




We could love, we could love you
If you need somebody to love you
While you're looking for somebody to love

E--------------|----------|------------|----------|
B--------------|----------|------------|----------|
G--------------|----------|------------|----------|
D--------------|----------|------------|-7b5------|
A--------------|-5-3------|------------|-----7-5-5|
E-0-3-5-6-7-8--|-----5-3-5|-0-3-5-6-7-0|----------|


I have found only the chorus chords of the song Love illumination:
E (x799xx)
C (81010XXX)
G(355XXX)
D (X577XX)

Chorus:
E              
Sweet love illumination 
C
Sweet, sweet love elevation 
G
Outside, fresh other side 
D
But inside love, you will be alright 
E
Sweet love illumination 
C
Sweet, sweet love celebration 
G
Got covered, reason term(?) 
D
But it'll bring you up 
E
You'll be alright 

Solo : I don't find it!

Bridge (The note of first two strophes are played once)
E
We could love, we could love you
D
If you need somebody to love you
E 
While you're looking for somebody to love

We're all looking for somebody
 
We're all looking for somebody to love
            
Submit corrections

↑ Back to top | Tablatures and chords for acoustic guitar and electric guitar, ukulele, drums are parodies/interpretations of the original songs. You may use it for private study, scholarship, research or language learning purposes only