» » »

Franz Ferdinand - No You Girls Bass

Artists:  A B C D E F G H I J K L M N O P Q R S T U V W X Y Z # 

No You Girls Bass

(ver. 1) Click to play this song!
Franz Ferdinand
 Rating:
4/5 (4 votes)

 No You Girls lessons Tabs too difficult? Try these video lessons and learn fast
 
                This song is from Franz Ferdinand's third album "Tonight: Franz Ferdinand". Also, 
this be my first tab.

Intro:
G|----------------------|
D|--5-5-5-5-5-5-5-5-----| X2
A|----------------------|
E|----------------------|

|--------------------------3--3h5-3--|
|--5-5-5-5-5-5-5-5p3---3-5-----------|
|--------------------5---------------|
|------------------------------------|

Verse 1:
|-------------3-3-5-3--|
|--5-5---3h5-----------| X4
|-----55---------------|
|----------------------|

|----------0-0-2---------------0-2--|
|--2-2---2---------2-2---2-012------|
|-----------------------------------|
|-----------------------------------|

|-------------3-3-5-3--|
|--5-5---3h5-----------| X4
|-----55---------------|
|----------------------|

|----------0-0-2---------------0-2--|
|--2-2---2---------2-2---2-012------|
|-----------------------------------|
|-----------------------------------|

|--5-5---3h5--3-5---3h5-7/--|
|-----55---------55---------|
|---------------------------|
|---------------------------|

Pre-chorus:
|----------------3-5-5-5-5-5-5-5-3---------------3-5-5-5-5-5-5-5-5--|
|--5-5-5-5-5-5-5-------------------5-5-5-5-5-5-5--------------------|
|-------------------------------------------------------------------|
|-------------------------------------------------------------------|

Chorus:
|--------------3------------5-3---------------3----5-5-5-5-3-3-3------|
|--5-5-5p3---5------5-5p3---------5-5-5p3---5--------------------5p3--|
|---------5--------------5---------------5----------------------------|
|---------------------------------------------------------------------|

|--------------3------------5-3---------------3----5-5----3-3--|
|--5-5-5p3---5------5-5p3---------5-5-5p3---5------------------|
|---------5--------------5---------------5---------------------|
|--------------------------------------------------------------|
                                 Pre-verse drum madness:
|-----------------3----5-5--|     G|---------------3-3-5-3--|
|--3h5-5-5p3----5-----------|     D|---5-5---3h5------------| X4
|-----------5---------------|     A|-------55---------------|
|---------------------------|     E|------------------------|

Verse 2:
|-------------3-3-5-3--|
|--5-5---3h5-----------| X4
|-----55---------------|
|----------------------|

|----------0-0-2---------------0-2--|
|--2-2---2---------2-2---2-012------|
|-----------------------------------|
|-----------------------------------|

|-------------3-3-5-3--|
|--5-5---3h5-----------| X4
|-----55---------------|
|----------------------|

|----------0-0-2---------------0-2--|
|--2-2---2---------2-2---2-012------|
|-----------------------------------|
|-----------------------------------|

|--5-5---3h5--3-5---3h5-7/--|
|-----55---------55---------|
|---------------------------|
|---------------------------|

Pre-chorus:
|---------------3-5-5-5-5-5-5-5-3-------------3-5-5-5-5-5-5-5-5--|
|--5-5-5-5-5-5-5-----------------5-5-5-5-5-5-5-------------------|
|----------------------------------------------------------------|
|----------------------------------------------------------------|

Chorus:
|--------------3------------5-3---------------3----5-5-5--3-3-3--|
|--5-5-5p3---5------5-5p3---------5-5-5p3---5--------------------| X2
|---------5--------------5---------------5-----------------------|
|----------------------------------------------------------------|

|--------------3----5-5-5--3-3-3---------------3----5-5----3-3--| 
|--5-5-5p3---5---------------------5-5-5p3---5------------------|
|---------5-------------------------------5---------------------|
|---------------------------------------------------------------|

Bridge: [there's some syncopated rhythm here]
|------------------------------------4--24---4--24---4--24---4--24---|
|----2--02---2--02---2--02---2--02-----------------------------------|
|--------------------------------------------------------------------|
|--------------------------------------------------------------------|

|---5--35---5--35---5--35---5--35---|
|-----------------------------------|
|-----------------------------------|
|-----------------------------------|

Pre-chorus:
|---------------3-4-5-5-5-5-5-5-5-4-------------3-4-5-5-5-5-5-5-5-3-|
|---5-5-5-5-5-5---------------------5-5-5-5-5-5---------------------| X2
|-------------------------------------------------------------------|
|-------------------------------------------------------------------|

|---------------|
|--5------5--5--|
|---------------|
|---------------|

Chorus:
|--------------3------------5-3---------------3----5-5-5--3-3-3--|
|--5-5-5p3---5------5-5p3---------5-5-5p3---5--------------------|X2
|---------5--------------5---------------5-----------------------|
|----------------------------------------------------------------|

|--------------3----5-5-5--3-3-3---------------3----5-5-5--3-3-3--|  
|--5-5-5p3---5---------------------5-5-5p3---5--------------------|
|---------5-------------------------------5-----------------------|
|-----------------------------------------------------------------|

Outro:
|----------------------|      G|-------|  
|--5-5-5-5-5-5-5-5-----| X3   D|--5----|
|----------------------|      A|-------|
|----------------------|      E|-------|
            
Submit corrections


        No You Girls lessons Hard to play? Try these video lessons and learn fast No You Girls lessons
        
↑ Back to top | Tablatures and chords for acoustic guitar and electric guitar, ukulele, drums are parodies/interpretations of the original songs. You may use it for private study, scholarship, research or language learning purposes only