» » »

Franz Ferdinand - Fallen Bass

Artists:  A B C D E F G H I J K L M N O P Q R S T U V W X Y Z # 

Fallen Bass

(ver. 1) Click to play this song!
Franz Ferdinand
 Rating:
4/5 (4 votes)

 Fallen lessons Tabs too difficult? Try these video lessons and learn fast
 
                Artist-Franz Ferdinand
Song-The Fallen
Album-You could have it So Much Better

Standard tuning E,A,D,G

Intro
|--------------|x4 
|------88------|   
|-3-3-----88-8-|   
|--------------| 

|-------------------------------------------------------------|
|-------------------------------------------------------------|
|-------------------------------------------------------------|
|-8-8-8-8-8-8-8-8-0-0-00-0-0-0-3-3-33-3-3-3/*1313131313131313*|*13 not 1 3

Verse1 (x3) - () means only sometimes played.
|----------------------------|x4 |-----------------|
|----------------------------|   |-----------------|
|----------------------------|   |-----------------|
|-5-5-5-5(6)/13-13-13-13(12)-|   |-3-3-3-3-4-4-4-4-|

Chorus
|--------------|x3
|------88------|   
|-3-3-----88-8-|   
|--------------| 

|-------------------------------------------------------------|
|-------------------------------------------------------------|
|-------------------------------------------------------------|
|-8-8-8-8-8-8-8-8-0-0-00-0-0-0-3-3-33-3-3-3/-1313131313131313-|

Verse2 (x1)
|---------------------|x2 |-----------------|
|---------------------|   |-----------------|
|---------------------|   |-----------------|
|-5-5-5-5/13-13-13-13\|   |-3-3-3-3-4-4-4-4-|

Chorus2
|--------------|x2
|------88------|   
|-3-3-----88-8-|   
|--------------| 

|-------------------------------------------------------------|
|-------------------------------------------------------------|
|-------------------------------------------------------------|
|-8-8-8-8-8-8-8-8-0-0-00-0-0-0-3-3-33-3-3-3/-1313131313131313-|

Verse1 x3

Chorus3
|--------------|x6
|------88------|   
|-3-3-----88-8-|   
|--------------| 

|-------------------------------------------------------------|
|-------------------------------------------------------------|
|-------------------------------------------------------------|
|-8-8-8-8-8-8-8-8-0-0-00-0-0-0-3-3-33-3-3-3/-1313131313131313-|

Bridge
|----------------------------------------|
|----------------------------------------|
|-33—-33-—555-333-555-33-----------------|
|---33-—55--------------3333333333333333-|

|-----------------|x3 |-------------|
|-----------------|   |-------------|
|-----------------|   |-------------|
|-5-5-7/-13-13-12\|   |-3-3-3-4-4-4-|

Verse1 x1

Chorus4
|--------------|x16
|------88------|   
|-3-3-----88-8-|   
|--------------| 

|-------------------------------------------------------------|
|-------------------------------------------------------------|
|-------------------------------------------------------------|
|-8-8-8-8-8-8-8-8-0-0-00-0-0-0-3-3-33-3-3-3/-1313131313131313-|
            
Submit corrections


        Fallen lessons Hard to play? Try these video lessons and learn fast Fallen lessons
        
↑ Back to top | Tablatures and chords for acoustic guitar and electric guitar, ukulele, drums are parodies/interpretations of the original songs. You may use it for private study, scholarship, research or language learning purposes only