» » »

Franz Ferdinand - Take Me Out Tabs

Artists:  A B C D E F G H I J K L M N O P Q R S T U V W X Y Z # 

Take Me Out Tabs

(ver. 3) Click to play this song!
Franz Ferdinand
 Rating:
4/5 (4 votes)

 Take Me Out lessons Tabs too difficult? Try these video lessons and learn fast
 
                Intro

D---2--2--2--2--2--2--2--2--2—2 (Repeat however many times)
A---2--2--2--2--2--2--2--2--2--

As singing comes in, play this
It sounds fairly reasonable

D -5--5--5--5--5--4--4--4--4--4--4---9---9----9---7-7--7--5-----------
A--7--7--7--7--7- 5--5--5--5- 5--5--10--10--10--9--9--9--7------------

Then

D--5--5--5---7--7--7--2--2--2--2--2--2---
A--7--7--7---9--9--9--2--2--2--2--2--2---

E--x------------------------------------------------------
B--x------------------------------------------------------
G--x------------------------------------------------------
D--x-5--5--5--5--5-5-5-5-5---5---5--5---------------------
A--x-7--7--7--7--7 7-7-7-7---7---7--7---------------------
E--x------------------------------------------------------

Main riff

B-----8-----------------------------8-----------------------------
G--------9---9---7-------7---9~------9---9--7----------7—9~-------
D---------------------9-----------------------------9-------------

Then the riff goes

B----7--7--7--7--7-------
G---------------------7----

And that’s it for a start at least anyway.

Hope this helps you.

PLEASE RATE AND SEND ME CORRECTIONS 

Lui (age13)
            
Submit corrections


        Take Me Out lessons Hard to play? Try these video lessons and learn fast Take Me Out lessons
        
↑ Back to top | Tablatures and chords for acoustic guitar and electric guitar, ukulele, drums are parodies/interpretations of the original songs. You may use it for private study, scholarship, research or language learning purposes only