» » »

Franz Ferdinand - Send Him Away Tabs

Artists:  A B C D E F G H I J K L M N O P Q R S T U V W X Y Z # 

Send Him Away Tabs

(ver. 1) Click to play this song!
Franz Ferdinand
 Rating:
4/5 (4 votes)

 Send Him Away lessons Tabs too difficult? Try these video lessons and learn fast
 
                -------------------------------------------------------------------------------
-------------------------------------------------------------------------------

Tuning: Standard

My first tab ! I hope it will be comprehensible in spite of my awful english and the way 
tab this song. Please comment if you have any observation or correction.

Intro : Play it twice.

e|---------------------------------------------------------------------------|
B|---------------------------------------------------------------------------|
G|------------12-10----10---------------------12-10----10----------10-12~----|
D|------------------12----12-10-12-10---------------12----12-10-12-----------|
A|---10-(10)--------------------------12-10~---------------------------------|
E|---------------------------------------------------------------------------|


Verse : let the chords ring


e|---3---------------3------------3-------------3----------------------------|
B|---4---------------3------------4-------------3----------------------------|
G|---5---------------3------------5-------------3----------------------------|
D|---5---------------5------------5-------------5----------------------------|
A|---3---------------5------------3-------------5----------------------------|
E|---------------------------------------------------------------------------|
    (Cm)            (Gm)         (Cm)          (Gm)
    I can't seem to feel the envy I should feel or maybe

e|---6---------------6-------------8---------8-------10-------10-------------|
B|---8---------------6-------------8---------8-------10-------10-------------|
G|---8---------------7-------------8---------8-------11-------11-------------|
D|---8---------------8-------------10--------10------12-------12-------------|
A|---6---------------8-------------10--------10------12-------12-------------|
E|---------------------------------------------------------------------------|
    (D#)            (A#)          (Cm)      (Cm)     (D)      (D)
    I don't need the sour side of love...           of love


Chorus :

Two chords, listen to the song for the rythm. I think this is something like that :

e|---x-x-10-(10)----x-x-8--(8)----------------------------------------------|
B|---x-x-11-(11)----x-x-10-(10)---------------------------------------------|
G|---x-x-12-(12)----x-x-10-(10)---------------------------------------------|
D|---x-x-12-(12)----x-x-10-(10)---------------------------------------------|
A|---x-x-10-(10)----x-x-8--(8)----------------------------------------------|
E|---x-x------------x-x-----------------------------------------------------|
         (Gm)           (F)


Then the riff played in the intro (Play it twice and add the half of it) :

e|---------------------------------------------------------------------------|
B|---------------------------------------------------------------------------|
G|------------12-10----10---------------------12-10----10----------10-12~----|
D|------------------12----12-10-12-10---------------12----12-10-12-----------|
A|---10-(10)--------------------------12-10~---------------------------------|
E|---------------------------------------------------------------------------|

Chords of second verse are the same that are played in the first. Chorus is the same, too.

Then the main riff, a bit different :

e|-------------------------------------------|
B|-------------------------------------------|
G|------------12-10----10--------------------|
D|------------------12----12-10-12-10--------|
A|---10-(10)--------------------------12-10~-|
E|-------------------------------------------|

Play it 7 times. Then,

e|---10--10---8---8--8--8--8-------------------------------------------------|
B|---11--11---10--10-10-10-10------------------------------------------------|
G|---12--12---10--10-10-10-10------------------------------------------------|
D|---12--12---10--10-10-10-10------------------------------------------------|
A|---10--10---8---8--8--8--8-------------------------------------------------|
E|---------------------------------------------------------------------------|
   Play this 5 times, then end this little part with a Gm.

  While Alex is playing this, Nick plays on keyboard :

e|---------------------------------------------------------------------------|
B|---------------------------------------------------------------------------|
G|---------------------------------------------------------------------------|
D|----------------------10---------------------------------------------------|
A|--10-13-12------10-13-------12----10-13-12----12----10---------------------|
E|-----------13------------13----13----------13----13------------------------|


Then the "Can't you let me stay tonight" part, played with the same chords and fading in 
end.

Outro :

Nick's keyboard

e|----------------------------------------------------------------------------------------|
B|----------------------------------------------------------------------------------------|
G|---------------10-12~--------------------------12-10----------------12-10---------------|
D|---------10-12----------------10-12-10---------------12-10-12-------------12-10-12------|
A|---10-13----------------10-13----------13~--10----------------12-10~---------------12-10|
E|----------------------------------------------------------------------------------------|

End with :

e|------------------------------------|
B|------------------------------------|
G|----12-12-12-12-12-12-12-12-10------|
D|-----x--x--x--x--x--x--x--x--x------| x3
A|----10-10-10-10-10-10-10-10--8------|
E|------------------------------------|

| /  slide up
| \  slide down
| h  hammer-on
| p  pull-off
| ~  vibrato
| +  harmonic
| x  Mute note
===============================================================================
            
Submit corrections


        Send Him Away lessons Hard to play? Try these video lessons and learn fast Send Him Away lessons
        
↑ Back to top | Tablatures and chords for acoustic guitar and electric guitar, ukulele, drums are parodies/interpretations of the original songs. You may use it for private study, scholarship, research or language learning purposes only