» » »

Franz Ferdinand - Right Action Tabs

Artists:  A B C D E F G H I J K L M N O P Q R S T U V W X Y Z # 

Right Action Tabs

(ver. 2) Click to play this song!
Franz Ferdinand
 Rating:
4/5 (4 votes)

 Right Action lessons Tabs too difficult? Try these video lessons and learn fast
 
                e |--------------------------|  
B |--------------------------|
G |--------------------------|
D |---------4-4--------------|
A |--3-5-3-5-----------------| 
E |--------------------------|

Main riff (Alex Kapranos): 

e |--------------------------|
B |---------7-7--------------|  
G |--5-7-5-7-----------------|
D |--------------------------|
A |--------------------------|
E |--------------------------|

Riff 2: Alex plays this while Nick continues the main riff. 

Right thoughts, right words... 

e |--------------------------|
B |--1-1-3-3-1-1-3-3---------|
G |--2-2-4-4-2-2-4-4---------|
D |--3-3-5-5-3-3-5-5---------|
A |--3-3-5-5-3-3-5-5---------| 
E |--------------------------|


Riff 3: How can we leave you... (try it with alittle distortion) 

Both: 

e |--------------------------|
B |--------------------------|
G |--------------------------|
D |--4-4-7-7-----------------|
A |--2-2-5-5-4-4-7-7---------|
E |----------2-2-5-5---------|

Riff 4: Tudududu.

Nick: 

e |--------------------------|
B |--------------------------|
G |--------------------------|
D |--3-2--3-2-------3-5-3----|
A |-----5----5--5-5------5---|
E |--------------------------|

Alex: 

e |--------------------------|
B |---------7-7--------------|
G |--5-7-5-7-----------------|
D |--------------------------|
A |--------------------------|
E |--------------------------|

Riff 5: Eleven South Court Gardens... (try it once again with distortion)

e |--------------------------|
B |--------------------------|
G |--------------------------|
D |--------------------------|
A |--------------------------|
E |--5-5-0-5-3-3-0-3---------|

----------------------------------------------------------------------------------------

Riff 1: 
Come home practically all is nearly forgiven
Riff 2: 
Right thoughts, right words, right action
Riff 1: 
Almost everything could be forgotten
Riff 2: 
Right thoughts, right words, right action

Riff 3: 
But how can we leave you
                                Riff 1: 
To a Saturday night or a Sunday morning
Good morning

Riff 4: 
Tudududu part (keyboard). 

Riff 1: 
Sometimes I wish you were here, weather permitting
Riff 2: 
Right thoughts, right words, right action
Riff 1: 
This time, same as before, I'll love you forever
Riff 2: 
Right thoughts, right words, right action


Riff 3: 
But how can we leave you
                                Riff 1: 
To a Saturday night or a Sunday morning
Good morning


Riff 4: 
Tudududu part (keyboard). 

Riff 5: 
Eleven South Court Gardens
England's Lane past end to London


Riff 4: 
Tudududu part (keyboard). 

No guitar: 
This time, same as before. I'll love you forever. 
Riff 2: 
Right thoughts, right words, right action
Riff 2: 
Right thoughts, right words, right action
Riff 2: 
Right thoughts, right words, right action
Riff 2: 
Right thoughts, right words, right action





            
Submit corrections


        Right Action lessons Hard to play? Try these video lessons and learn fast Right Action lessons
        
↑ Back to top | Tablatures and chords for acoustic guitar and electric guitar, ukulele, drums are parodies/interpretations of the original songs. You may use it for private study, scholarship, research or language learning purposes only