Home » F » Franz Ferdinand »

Franz Ferdinand - No You Girls Tabs

Artists:  A B C D E F G H I J K L M N O P Q R S T U V W X Y Z # 

No You Girls Tabs

(ver. 2) Click to play this song!
Franz Ferdinand
 Rating:
4/5 (4 votes)
                Hello. I made this upon realization that there weren't many exceptional tabs for the new
album Tonight. Mind you, however, that this would be my first tab, so if there are any
then I apologize. Also, this is the only the first 45 seconds or so of the song, but I 
return to finish the rest of it shortly, especially if people think the following is correct.


(Intro)
e|--------------------------------|
B|------8p6h8--6p5h6--5p3h5-------|
G|--------------------------------|
D|--------------------------------|
A|--------------------------------|
E|--------------------------------|

(Verse)
e|--------------------------------|
B|--------------------------------|
G|--------------------------------|     X4
D|---7h8--5-5-3-5-5---------------|
A|--------------------------------|
E|--------------------------------|

e|--------------------------------|
B|--------------------------------|
G|--------------------------------|     X2
D|---7h8--5-5-8-------------------|
A|---------------7-7--------------|
E|--------------------------------|


e|--------------------------------|
B|--------------------------------|
G|--------------------------------|     X4
D|---7h8--5-5-3-5-5---------------|
A|--------------------------------|
E|--------------------------------|

e|--------------------------------|
B|--------------------------------|
G|--------------------------------|     X2
D|---7h8--5-5-8-------------------|
A|---------------7-7--------------|
E|--------------------------------|

e|--------------------------------|
B|--------------------------------|
G|--------------------------------|
D|---8---7---5--------------------|
A|-----------------5--------------|
E|--------------------------------|
            
Submit corrections

↑ Back to top | Tablatures and chords for acoustic guitar and electric guitar, ukulele, drums are parodies/interpretations of the original songs. You may use it for private study, scholarship, research or language learning purposes only