» » »

Franz Ferdinand - Love Illumination Bass

Artists:  A B C D E F G H I J K L M N O P Q R S T U V W X Y Z # 

Love Illumination Bass

(ver. 1) Click to play this song!
Franz Ferdinand
 Rating:
4/5 (4 votes)

 Love Illumination lessons Tabs too difficult? Try these video lessons and learn fast
 
                Intro (Alt. could play verse pattern)
G |-------------------------------------------------------|
D |-------------------------------------------------------|
A |------0-1-2--------------------------------------------|
E |-0-3--------0------------------------------------------| x2

G |-------------------------------------------------------|
D |-------------------------------------------------------|
A |------0-1-2-3------------------------------------------|
E |-0-3---------------------------------------------------| x2

G |-------------------------------------------------------|
D |-------------------------------------------------------|
A |---3-2-0--0--------------------------------------------|
E |-0-------3---------------------------------------------| x2

G |-------------------------------------------------------|
D |-------------------------------------------------------|
A |------0-1-2--------------------------------------------|
E |-0-3--------0------------------------------------------| x2

When you're halfway from a dream
Is it hard to work out what's real

G |---------------------------------------------------------------------------|
D |---------------------------------------------------------------------------|
A |---------------------------------------------------------------------------|
E |-12-12-12-12-12-12-12-12-12-12-12-12-12-12-12-12---------------------------|

Is the real over there
More vivid than here ever feels

G |---------------------------------------------------------------------------|
D |---------------------------------------------------------------------------|
A |---------------------------------------------------------------------------|
E |-12-12-12-12-12-12-12-12-12-12-12-12-12-12-12-12---------------------------|

We could love, we could love you

G |-------------------------------------------------------|
D |-------------------------------------------------------|
A |-3--3--3--3--3--3--3--3--------------------------------|
E |-------------------------------------------------------|

If you need somebody to love you

G |-------------------------------------------------------|
D |-------------------------------------------------------|
A |-0--0--0--0--0--0--0--0--------------------------------|
E |-------------------------------------------------------|

While you're looking for somebody to love

G |---------------------------------------------------------------|
D |---------------------------------------------------------------|
A |---------------------------------------------------------------|
E |-12-12-12-12-12-12-12-12-12-12-12-12-12------------------------|

Chorus

Sweet love illumination
G |-------------------------------------------------------|
D |-------------------------------------------------------|
A |-------------------------------------------------------|
E |-12-12-12-12-12-12-12-12-------------------------------|

Sweet, sweet love elevation
G |-------------------------------------------------------|
D |-------------------------------------------------------|
A |-3--3--3--3--3--3--3--3--------------------------------|
E |-------------------------------------------------------|

Outside, fresh other side
G |-------------------------------------------------------|
D |-------------------------------------------------------|
A |-------------------------------------------------------|
E |-3--3--3--3--3--3--3--3--------------------------------|

But inside our love, you will be alright
G |-------------------------------------------------------|
D |-------------------------------------------------------|
A |-5--5--5--5--5--5--5--5--------------------------------|
E |-------------------------------------------------------|

Sweet love illumination
G |-------------------------------------------------------|
D |-------------------------------------------------------|
A |-------------------------------------------------------|
E |-12-12-12-12-12-12-12-12-------------------------------|

Sweet, sweet love celebration
G |-------------------------------------------------------|
D |-------------------------------------------------------|
A |-3--3--3--3--3--3--3--3--------------------------------|
E |-------------------------------------------------------|

Cop car burn, reason term
G |-------------------------------------------------------|
D |-------------------------------------------------------|
A |-------------------------------------------------------|
E |-3--3--3--3--3--3--3--3--------------------------------|

But it'll bring you up, You'll be alright
G |-------------------------------------------------------|
D |-------------------------------------------------------|
A |-5--5--5--5--5--5--5--5--------------------------------|
E |-------------------------------------------------------|

Go through last 4 lines again under the Solo

Verse 2

Chorus

Solo

Bridge
We could love, we could love you

G |-------------------------------------------------------|
D |-------------------------------------------------------|
A |-3--3--3--3--3--3--3--3--------------------------------|
E |-------------------------------------------------------|

If you need somebody to love you

G |-------------------------------------------------------|
D |-------------------------------------------------------|
A |-0--0--0--0--0--0--0--0--------------------------------|
E |-------------------------------------------------------|

While you're looking for somebody to love

G |---------------------------------------------------------------|
D |---------------------------------------------------------------|
A |---------------------------------------------------------------|
E |-12-12-12-12-12-12-12-12-12-12-12-12-12------------------------|

We're all looking for somebody

G |---------------------------------------------------------------|
D |---------------------------------------------------------------|
A |---------------------------------------------------------------|
E |-12-12-12-12-12-12-12-12-12-12-12-12-12------------------------|

We're all looking for somebody to love

G |---------------------------------------------------------------|
D |---------------------------------------------------------------|
A |---------------------------------------------------------------|
E |-12-12-12-12-12-12-12-12-12-12-12-12-12------------------------|

Chorus

Outro

 Sweet Love

G |---------------------------------------------------------------|
D |---------------------------------------------------------------|
A |-3--3--3--3--3--3--3--3----------------------------------------|
E |---------------------------------------------------------------|

Sweet, sweet love

G |---------------------------------------------------------------|
D |---------------------------------------------------------------|
A |--5--5--5--5--5--5--5--5---------------------------------------|
E |---------------------------------------------------------------|

Sweet, sweet love

G |---------------------------------------------------------------|
D |---------------------------------------------------------------|
A |---------------------------------------------------------------|
E |-12-12-12-12---------------------------------------------------|

Sweet, sweet love

G |---------------------------------------------------------------|
D |---------------------------------------------------------------|
A |---------------------------------------------------------------|
E |-12-12-12-12---------------------------------------------------|

Sweet, sweet love

G |---------------------------------------------------------------|
D |---------------------------------------------------------------|
A |---------------------------------------------------------------|
E |-12-12-12-12---------------------------------------------------|

Sweet love

G |---------------------------------------------------------------|
D |---------------------------------------------------------------|
A |---------------------------------------------------------------|
E |-12-12---------------------------------------------------------|
            
Submit corrections


        Love Illumination lessons Hard to play? Try these video lessons and learn fast Love Illumination lessons
        
↑ Back to top | Tablatures and chords for acoustic guitar and electric guitar, ukulele, drums are parodies/interpretations of the original songs. You may use it for private study, scholarship, research or language learning purposes only