» » »

Franz Ferdinand - Evil A Heathen Bass

Artists:  A B C D E F G H I J K L M N O P Q R S T U V W X Y Z # 

Evil A Heathen Bass

(ver. 2) Click to play this song!
Franz Ferdinand
 Rating:
4/5 (4 votes)

 Evil A Heathen lessons Tabs too difficult? Try these video lessons and learn fast
 
                Artist-Franz Ferdinand
Song-Evil and a Heathen
Album-You could have it So Much Better

Standard tuning-EADG

Intro
|-----------------------------------|
|*---------------------------------*|
|*---------------------------------*|
|--2-2-2-2-2-2-2-2--2-2-2-2-2-2-2-2-|

Verse/Chorus
|----------------------------------|
|----------------------------------|
|----------------------------------|
|-5-5-4-4-2-2-2-2--5-5-4-4-2-2-2-2-|

Bridge
|------------------------------------------------------------------|
|-----------------------7-----------------7------------------7-----|
|----------7-7-7-7-—5-5---5--7-7-7-7--5-5---5---7-7-7-7--5-5---5---|
|-5-5-7-7----------------------------------------------------------|

---------------------------|---------------------|
---------------------------|*--------------------|
-7-7-7-7—-5-5-6-6----------|*--------------------|
-------------------2-2-2-2-|--5-5-4-4-2-2-2-2----|

Outro

|---------------|x4
|-------------4-|
|-----------4---|
|-5-5-4-4-2-----|
            
Submit corrections


        Evil A Heathen lessons Hard to play? Try these video lessons and learn fast Evil A Heathen lessons
        
↑ Back to top | Tablatures and chords for acoustic guitar and electric guitar, ukulele, drums are parodies/interpretations of the original songs. You may use it for private study, scholarship, research or language learning purposes only